  0
SECTION
  2
HEADER
  9
$ACADVER
  1
AC1015
  9
$ACADMAINTVER
 70
    13
  9
$DWGCODEPAGE
  3
ANSI_1257
  9
$INSBASE
 10
0.0
 20
0.0
 30
0.0
  9
$EXTMIN
 10
600.9493511756277
 20
-195.1883772849728
 30
0.0
  9
$EXTMAX
 10
4442.293229435597
 20
1604.830140870966
 30
612.0750113412469
  9
$LIMMIN
 10
0.0
 20
0.0
  9
$LIMMAX
 10
50000.0
 20
50000.0
  9
$ORTHOMODE
 70
     1
  9
$REGENMODE
 70
     1
  9
$FILLMODE
 70
     1
  9
$QTEXTMODE
 70
     0
  9
$MIRRTEXT
 70
     1
  9
$LTSCALE
 40
1.0
  9
$ATTMODE
 70
     1
  9
$TEXTSIZE
 40
2.5
  9
$TRACEWID
 40
1.0
  9
$TEXTSTYLE
  7
Standard
  9
$CLAYER
  8
minu
  9
$CELTYPE
  6
ByLayer
  9
$CECOLOR
 62
   256
  9
$CELTSCALE
 40
1.0
  9
$DISPSILH
 70
     0
  9
$DIMSCALE
 40
1.0
  9
$DIMASZ
 40
2.5
  9
$DIMEXO
 40
0.625
  9
$DIMDLI
 40
3.75
  9
$DIMRND
 40
0.0
  9
$DIMDLE
 40
0.0
  9
$DIMEXE
 40
1.25
  9
$DIMTP
 40
0.0
  9
$DIMTM
 40
0.0
  9
$DIMTXT
 40
2.5
  9
$DIMCEN
 40
2.5
  9
$DIMTSZ
 40
0.0
  9
$DIMTOL
 70
     0
  9
$DIMLIM
 70
     0
  9
$DIMTIH
 70
     0
  9
$DIMTOH
 70
     0
  9
$DIMSE1
 70
     0
  9
$DIMSE2
 70
     0
  9
$DIMTAD
 70
     1
  9
$DIMZIN
 70
     8
  9
$DIMBLK
  1

  9
$DIMASO
 70
     1
  9
$DIMSHO
 70
     1
  9
$DIMPOST
  1

  9
$DIMAPOST
  1

  9
$DIMALT
 70
     0
  9
$DIMALTD
 70
     3
  9
$DIMALTF
 40
0.03937007874016
  9
$DIMLFAC
 40
1.0
  9
$DIMTOFL
 70
     1
  9
$DIMTVP
 40
0.0
  9
$DIMTIX
 70
     0
  9
$DIMSOXD
 70
     0
  9
$DIMSAH
 70
     0
  9
$DIMBLK1
  1

  9
$DIMBLK2
  1

  9
$DIMSTYLE
  2
ISO-25
  9
$DIMCLRD
 70
     0
  9
$DIMCLRE
 70
     0
  9
$DIMCLRT
 70
     0
  9
$DIMTFAC
 40
1.0
  9
$DIMGAP
 40
0.625
  9
$DIMJUST
 70
     0
  9
$DIMSD1
 70
     0
  9
$DIMSD2
 70
     0
  9
$DIMTOLJ
 70
     0
  9
$DIMTZIN
 70
     8
  9
$DIMALTZ
 70
     0
  9
$DIMALTTZ
 70
     0
  9
$DIMUPT
 70
     0
  9
$DIMDEC
 70
     2
  9
$DIMTDEC
 70
     2
  9
$DIMALTU
 70
     2
  9
$DIMALTTD
 70
     3
  9
$DIMTXSTY
  7
Standard
  9
$DIMAUNIT
 70
     0
  9
$DIMADEC
 70
     3
  9
$DIMALTRND
 40
0.0
  9
$DIMAZIN
 70
     0
  9
$DIMDSEP
 70
    44
  9
$DIMATFIT
 70
     3
  9
$DIMFRAC
 70
     0
  9
$DIMLDRBLK
  1

  9
$DIMLUNIT
 70
     2
  9
$DIMLWD
 70
    -2
  9
$DIMLWE
 70
    -2
  9
$DIMTMOVE
 70
     0
  9
$LUNITS
 70
     2
  9
$LUPREC
 70
     0
  9
$SKETCHINC
 40
1.0
  9
$FILLETRAD
 40
30.0
  9
$AUNITS
 70
     0
  9
$AUPREC
 70
     3
  9
$MENU
  1
.
  9
$ELEVATION
 40
0.0
  9
$PELEVATION
 40
0.0
  9
$THICKNESS
 40
0.0
  9
$LIMCHECK
 70
     0
  9
$CHAMFERA
 40
10.0
  9
$CHAMFERB
 40
10.0
  9
$CHAMFERC
 40
20.0
  9
$CHAMFERD
 40
0.0
  9
$SKPOLY
 70
     0
  9
$TDCREATE
 40
2453223.299417488
  9
$TDUCREATE
 40
2453223.216084155
  9
$TDUPDATE
 40
2453334.534981909
  9
$TDUUPDATE
 40
2453334.451648576
  9
$TDINDWG
 40
0.2045585532
  9
$TDUSRTIMER
 40
0.2045585532
  9
$USRTIMER
 70
     1
  9
$ANGBASE
 50
0.0
  9
$ANGDIR
 70
     0
  9
$PDMODE
 70
     0
  9
$PDSIZE
 40
0.0
  9
$PLINEWID
 40
0.0
  9
$SPLFRAME
 70
     0
  9
$SPLINETYPE
 70
     6
  9
$SPLINESEGS
 70
     8
  9
$HANDSEED
  5
67F
  9
$SURFTAB1
 70
     6
  9
$SURFTAB2
 70
     6
  9
$SURFTYPE
 70
     6
  9
$SURFU
 70
     6
  9
$SURFV
 70
     6
  9
$UCSBASE
  2

  9
$UCSNAME
  2

  9
$UCSORG
 10
0.0
 20
0.0
 30
0.0
  9
$UCSXDIR
 10
1.0
 20
0.0
 30
0.0
  9
$UCSYDIR
 10
0.0
 20
1.0
 30
0.0
  9
$UCSORTHOREF
  2

  9
$UCSORTHOVIEW
 70
     0
  9
$UCSORGTOP
 10
0.0
 20
0.0
 30
0.0
  9
$UCSORGBOTTOM
 10
0.0
 20
0.0
 30
0.0
  9
$UCSORGLEFT
 10
0.0
 20
0.0
 30
0.0
  9
$UCSORGRIGHT
 10
0.0
 20
0.0
 30
0.0
  9
$UCSORGFRONT
 10
0.0
 20
0.0
 30
0.0
  9
$UCSORGBACK
 10
0.0
 20
0.0
 30
0.0
  9
$PUCSBASE
  2

  9
$PUCSNAME
  2

  9
$PUCSORG
 10
0.0
 20
0.0
 30
0.0
  9
$PUCSXDIR
 10
1.0
 20
0.0
 30
0.0
  9
$PUCSYDIR
 10
0.0
 20
1.0
 30
0.0
  9
$PUCSORTHOREF
  2

  9
$PUCSORTHOVIEW
 70
     0
  9
$PUCSORGTOP
 10
0.0
 20
0.0
 30
0.0
  9
$PUCSORGBOTTOM
 10
0.0
 20
0.0
 30
0.0
  9
$PUCSORGLEFT
 10
0.0
 20
0.0
 30
0.0
  9
$PUCSORGRIGHT
 10
0.0
 20
0.0
 30
0.0
  9
$PUCSORGFRONT
 10
0.0
 20
0.0
 30
0.0
  9
$PUCSORGBACK
 10
0.0
 20
0.0
 30
0.0
  9
$USERI1
 70
     0
  9
$USERI2
 70
     0
  9
$USERI3
 70
     0
  9
$USERI4
 70
     0
  9
$USERI5
 70
     0
  9
$USERR1
 40
0.0
  9
$USERR2
 40
0.0
  9
$USERR3
 40
0.0
  9
$USERR4
 40
0.0
  9
$USERR5
 40
0.0
  9
$WORLDVIEW
 70
     1
  9
$SHADEDGE
 70
     3
  9
$SHADEDIF
 70
    70
  9
$TILEMODE
 70
     0
  9
$MAXACTVP
 70
    64
  9
$PINSBASE
 10
0.0
 20
0.0
 30
0.0
  9
$PLIMCHECK
 70
     0
  9
$PEXTMIN
 10
3.89646449800125
 20
3.818909331108443
 30
-0.0000000349181948
  9
$PEXTMAX
 10
414.68816197992
 20
286.8387744886181
 30
0.0000000814935746
  9
$PLIMMIN
 10
-3.17498779296875
 20
-3.174999952316284
  9
$PLIMMAX
 10
416.9833374023437
 20
293.8780090808868
  9
$UNITMODE
 70
     0
  9
$VISRETAIN
 70
     1
  9
$PLINEGEN
 70
     0
  9
$PSLTSCALE
 70
     1
  9
$TREEDEPTH
 70
  3020
  9
$CMLSTYLE
  2
Standard
  9
$CMLJUST
 70
     0
  9
$CMLSCALE
 40
20.0
  9
$PROXYGRAPHICS
 70
     1
  9
$MEASUREMENT
 70
     1
  9
$CELWEIGHT
370
    -1
  9
$ENDCAPS
280
     0
  9
$JOINSTYLE
280
     0
  9
$LWDISPLAY
290
     0
  9
$INSUNITS
 70
     4
  9
$HYPERLINKBASE
  1

  9
$STYLESHEET
  1

  9
$XEDIT
290
     1
  9
$CEPSNTYPE
380
     0
  9
$PSTYLEMODE
290
     1
  9
$FINGERPRINTGUID
  2
{F7D93B2A-B66C-4EB2-A11B-06974D0A191B}
  9
$VERSIONGUID
  2
{A58C74CA-5D64-4CDB-9F42-387AE9C1FC25}
  9
$EXTNAMES
290
     1
  9
$PSVPSCALE
 40
0.0
  9
$OLESTARTUP
290
     0
  0
ENDSEC
  0
SECTION
  2
CLASSES
  0
CLASS
  1
ACDBDICTIONARYWDFLT
  2
AcDbDictionaryWithDefault
  3
AutoCAD 2000
 90
        0
280
     0
281
     0
  0
CLASS
  1
ACDBPLACEHOLDER
  2
AcDbPlaceHolder
  3
AutoCAD 2000
 90
        0
280
     0
281
     0
  0
CLASS
  1
LAYOUT
  2
AcDbLayout
  3
AutoCAD 2000
 90
        0
280
     0
281
     0
  0
CLASS
  1
DICTIONARYVAR
  2
AcDbDictionaryVar
  3
AutoCAD 2000
 90
        0
280
     0
281
     0
  0
ENDSEC
  0
SECTION
  2
TABLES
  0
TABLE
  2
VPORT
  5
8
330
0
100
AcDbSymbolTable
 70
     1
  0
VPORT
  5
66B
330
8
100
AcDbSymbolTableRecord
100
AcDbViewportTableRecord
  2
*Active
 70
     0
 10
0.0
 20
0.0
 11
1.0
 21
1.0
 12
754.3204207681974
 22
1523.892329320261
 13
0.0
 23
0.0
 14
10.0
 24
10.0
 15
10.0
 25
10.0
 16
0.0
 26
0.0
 36
1.0
 17
0.0
 27
0.0
 37
0.0
 40
609.2753906464295
 41
1.55795677799607
 42
50.0
 43
0.0
 44
0.0
 50
0.0
 51
0.0
 71
     0
 72
   100
 73
     1
 74
     1
 75
     0
 76
     0
 77
     0
 78
     0
281
     0
 65
     1
110
0.0
120
0.0
130
0.0
111
1.0
121
0.0
131
0.0
112
0.0
122
1.0
132
0.0
 79
     0
146
0.0
  0
ENDTAB
  0
TABLE
  2
LTYPE
  5
5
330
0
100
AcDbSymbolTable
 70
     2
  0
LTYPE
  5
14
330
5
100
AcDbSymbolTableRecord
100
AcDbLinetypeTableRecord
  2
ByBlock
 70
     0
  3

 72
    65
 73
     0
 40
0.0
  0
LTYPE
  5
15
330
5
100
AcDbSymbolTableRecord
100
AcDbLinetypeTableRecord
  2
ByLayer
 70
     0
  3

 72
    65
 73
     0
 40
0.0
  0
LTYPE
  5
16
330
5
100
AcDbSymbolTableRecord
100
AcDbLinetypeTableRecord
  2
Continuous
 70
     0
  3
Solid line
 72
    65
 73
     0
 40
0.0
  0
LTYPE
  5
5A6
330
5
100
AcDbSymbolTableRecord
100
AcDbLinetypeTableRecord
  2
ACAD_ISO02W100
 70
     0
  3
ISO dash __ __ __ __ __ __ __ __ __ __ __ __ __
 72
    65
 73
     2
 40
15.0
 49
12.0
 74
     0
 49
-3.0
 74
     0
  0
ENDTAB
  0
TABLE
  2
LAYER
  5
2
102
{ACAD_XDICTIONARY
360
31
102
}
330
0
100
AcDbSymbolTable
 70
    12
  0
LAYER
  5
10
330
2
100
AcDbSymbolTableRecord
100
AcDbLayerTableRecord
  2
0
 70
     0
 62
     7
  6
Continuous
370
    -3
390
F
  0
LAYER
  5
282
330
2
100
AcDbSymbolTableRecord
100
AcDbLayerTableRecord
  2
med
 70
     0
 62
    11
  6
Continuous
370
    20
390
F
  0
LAYER
  5
283
330
2
100
AcDbSymbolTableRecord
100
AcDbLayerTableRecord
  2
kiri
 70
     0
 62
     7
  6
Continuous
370
     9
390
F
  0
LAYER
  5
2A8
330
2
100
AcDbSymbolTableRecord
100
AcDbLayerTableRecord
  2
minu
 70
     0
 62
     1
  6
Continuous
370
    25
390
F
  0
LAYER
  5
2E5
330
2
100
AcDbSymbolTableRecord
100
AcDbLayerTableRecord
  2
Medis
 70
     0
 62
     5
  6
Continuous
370
    -3
390
F
  0
LAYER
  5
2E6
330
2
100
AcDbSymbolTableRecord
100
AcDbLayerTableRecord
  2
hatch
 70
     0
 62
     8
  6
Continuous
370
    -3
390
F
  0
LAYER
  5
2E7
330
2
100
AcDbSymbolTableRecord
100
AcDbLayerTableRecord
  2
cherpes
 70
     0
 62
     3
  6
Continuous
370
    -3
390
F
  0
LAYER
  5
3AA
330
2
100
AcDbSymbolTableRecord
100
AcDbLayerTableRecord
  2
STRICH
 70
     0
 62
     2
  6
Continuous
370
    25
390
F
  0
LAYER
  5
523
330
2
100
AcDbSymbolTableRecord
100
AcDbLayerTableRecord
  2
vaateväli
 70
     0
 62
     7
  6
Continuous
290
     0
370
    -3
390
F
  0
LAYER
  5
5A7
330
2
100
AcDbSymbolTableRecord
100
AcDbLayerTableRecord
  2
hüdroiso
 70
     0
 62
     7
  6
ACAD_ISO02W100
370
    53
390
F
  0
LAYER
  5
5F5
330
2
100
AcDbSymbolTableRecord
100
AcDbLayerTableRecord
  2
tarpikl
 70
     0
 62
     6
  6
Continuous
370
    35
390
F
  0
LAYER
  5
636
330
2
100
AcDbSymbolTableRecord
100
AcDbLayerTableRecord
  2
hidrol
 70
     0
 62
     4
  6
Continuous
370
    -3
390
F
  0
ENDTAB
  0
TABLE
  2
STYLE
  5
3
330
0
100
AcDbSymbolTable
 70
     4
  0
STYLE
  5
11
330
3
100
AcDbSymbolTableRecord
100
AcDbTextStyleTableRecord
  2
Standard
 70
     0
 40
0.0
 41
1.0
 50
0.0
 71
     0
 42
2.5
  3
ARIAL.TTF
  4

1001
ACAD
1000
Arial
1071
       34
  0
STYLE
  5
5A5
330
3
100
AcDbSymbolTableRecord
100
AcDbTextStyleTableRecord
  2

 70
     1
 40
0.0
 41
1.0
 50
0.0
 71
     0
 42
2.5
  3
ltypeshp.shx
  4

  0
STYLE
  5
637
330
3
100
AcDbSymbolTableRecord
100
AcDbTextStyleTableRecord
  2
ARIAL
 70
     0
 40
0.0
 41
1.0
 50
0.0
 71
     0
 42
25.0
  3
ARIAL.TTF
  4

1001
ACAD
1000
Arial
1071
       34
  0
STYLE
  5
638
330
3
100
AcDbSymbolTableRecord
100
AcDbTextStyleTableRecord
  2
ISOCP-10
 70
     0
 40
25.0
 41
1.0
 50
0.0
 71
     0
 42
2.5
  3
ISOCP.SHX
  4

  0
ENDTAB
  0
TABLE
  2
VIEW
  5
6
330
0
100
AcDbSymbolTable
 70
     0
  0
ENDTAB
  0
TABLE
  2
UCS
  5
7
330
0
100
AcDbSymbolTable
 70
     0
  0
ENDTAB
  0
TABLE
  2
APPID
  5
9
330
0
100
AcDbSymbolTable
 70
     2
  0
APPID
  5
12
330
9
100
AcDbSymbolTableRecord
100
AcDbRegAppTableRecord
  2
ACAD
 70
     0
  0
APPID
  5
5E4
330
9
100
AcDbSymbolTableRecord
100
AcDbRegAppTableRecord
  2
DCO15
 70
     0
  0
ENDTAB
  0
TABLE
  2
DIMSTYLE
  5
A
330
0
100
AcDbSymbolTable
 70
     2
100
AcDbDimStyleTable
 71
     1
340
27
  0
DIMSTYLE
105
27
330
A
100
AcDbSymbolTableRecord
100
AcDbDimStyleTableRecord
  2
ISO-25
 70
     0
 41
2.5
 42
0.625
 43
3.75
 44
1.25
 73
     0
 74
     0
 77
     1
 78
     8
140
2.5
141
2.5
143
0.03937007874016
147
0.625
171
     3
172
     1
179
     3
271
     2
272
     2
274
     3
278
    44
283
     0
284
     8
340
11
  0
DIMSTYLE
105
639
330
A
100
AcDbSymbolTableRecord
100
AcDbDimStyleTableRecord
  2
DIM-10
 70
     0
 40
10.0
 41
2.0
 42
2.5
 43
5.0
 44
1.0
 45
1.0
 46
1.0
 73
     0
 74
     0
 77
     1
 78
     8
140
1.0
141
4.0
145
1.0
147
1.0
172
     1
173
     1
174
     1
176
   256
177
   256
178
    11
278
    44
279
     2
284
     8
340
638
343
632
344
632
  0
ENDTAB
  0
TABLE
  2
BLOCK_RECORD
  5
1
330
0
100
AcDbSymbolTable
 70
    12
  0
BLOCK_RECORD
  5
1F
330
1
100
AcDbSymbolTableRecord
100
AcDbBlockTableRecord
  2
*Model_Space
340
22
  0
BLOCK_RECORD
  5
1B
330
1
100
AcDbSymbolTableRecord
100
AcDbBlockTableRecord
  2
*Paper_Space
340
1E
  0
BLOCK_RECORD
  5
23
330
1
100
AcDbSymbolTableRecord
100
AcDbBlockTableRecord
  2
*Paper_Space0
340
26
  0
BLOCK_RECORD
  5
27E
330
1
100
AcDbSymbolTableRecord
100
AcDbBlockTableRecord
  2
_ArchTick
340
0
  0
BLOCK_RECORD
  5
2D8
330
1
100
AcDbSymbolTableRecord
100
AcDbBlockTableRecord
  2
Taselis
340
0
102
{BLKREFS
331
2E9
331
33B
331
37B
331
400
331
481
331
4D0
102
}
1001
ACAD
1000
DesignCenter Data
1002
{
1070
     1
1070
     4
1002
}
  0
BLOCK_RECORD
  5
2E8
330
1
100
AcDbSymbolTableRecord
100
AcDbBlockTableRecord
  2
kivi rooviga
340
0
102
{BLKREFS
331
32E
331
330
331
334
331
335
331
336
331
3BC
331
3BB
331
3BA
102
}
1001
ACAD
1000
DesignCenter Data
1002
{
1070
     1
1070
     4
1002
}
  0
BLOCK_RECORD
  5
3BE
330
1
100
AcDbSymbolTableRecord
100
AcDbBlockTableRecord
  2
harjakinnitus klamber
340
0
1001
ACAD
1000
DesignCenter Data
1002
{
1070
     1
1070
     4
1002
}
  0
BLOCK_RECORD
  5
3D2
330
1
100
AcDbSymbolTableRecord
100
AcDbBlockTableRecord
  2
harjakivi est
340
0
1001
ACAD
1000
DesignCenter Data
1002
{
1070
     1
1070
     4
1002
}
  0
BLOCK_RECORD
  5
50F
330
1
100
AcDbSymbolTableRecord
100
AcDbBlockTableRecord
  2
veenina
340
0
1001
ACAD
1000
DesignCenter Data
1002
{
1070
     1
1070
     4
1002
}
  0
BLOCK_RECORD
  5
516
330
1
100
AcDbSymbolTableRecord
100
AcDbBlockTableRecord
  2
Linnukaitse
340
0
1001
ACAD
1000
DesignCenter Data
1002
{
1070
     1
1070
     4
1002
}
  0
BLOCK_RECORD
  5
5F6
330
1
100
AcDbSymbolTableRecord
100
AcDbBlockTableRecord
  2
harjatihend
340
0
1001
ACAD
1000
DesignCenter Data
1002
{
1070
     1
1070
     4
1002
}
  0
BLOCK_RECORD
  5
623
330
1
100
AcDbSymbolTableRecord
100
AcDbBlockTableRecord
  2
A3 raamjoon
340
0
1001
ACAD
1000
DesignCenter Data
1002
{
1070
     1
1070
     4
1002
}
  0
BLOCK_RECORD
  5
632
330
1
100
AcDbSymbolTableRecord
100
AcDbBlockTableRecord
  2
_Oblique
340
0
  0
BLOCK_RECORD
  5
63A
330
1
100
AcDbSymbolTableRecord
100
AcDbBlockTableRecord
  2
nael
340
0
1001
ACAD
1000
DesignCenter Data
1002
{
1070
     1
1070
     4
1002
}
  0
ENDTAB
  0
ENDSEC
  0
SECTION
  2
BLOCKS
  0
BLOCK
  5
20
330
1F
100
AcDbEntity
  8
0
100
AcDbBlockBegin
  2
*Model_Space
 70
     0
 10
0.0
 20
0.0
 30
0.0
  3
*Model_Space
  1

  0
ENDBLK
  5
21
330
1F
100
AcDbEntity
  8
0
100
AcDbBlockEnd
  0
BLOCK
  5
1C
330
1B
100
AcDbEntity
 67
     1
  8
0
100
AcDbBlockBegin
  2
*Paper_Space
 70
     0
 10
0.0
 20
0.0
 30
0.0
  3
*Paper_Space
  1

  0
ENDBLK
  5
1D
330
1B
100
AcDbEntity
 67
     1
  8
0
100
AcDbBlockEnd
  0
BLOCK
  5
24
330
23
100
AcDbEntity
  8
0
100
AcDbBlockBegin
  2
*Paper_Space0
 70
     0
 10
0.0
 20
0.0
 30
0.0
  3
*Paper_Space0
  1

  0
ENDBLK
  5
25
330
23
100
AcDbEntity
  8
0
100
AcDbBlockEnd
  0
BLOCK
  5
280
330
27E
100
AcDbEntity
  8
0
100
AcDbBlockBegin
  2
_ArchTick
 70
     0
 10
0.0
 20
0.0
 30
0.0
  3
_ArchTick
  1

  0
LWPOLYLINE
  5
27F
330
27E
100
AcDbEntity
  8
0
  6
ByBlock
 62
     0
100
AcDbPolyline
 90
        2
 70
     0
 43
0.15
 10
-0.5
 20
-0.5
 10
0.5
 20
0.5
  0
ENDBLK
  5
281
330
27E
100
AcDbEntity
  8
0
100
AcDbBlockEnd
  0
BLOCK
  5
2E3
330
2D8
100
AcDbEntity
  8
0
 48
10.0
100
AcDbBlockBegin
  2
Taselis
 70
     0
 10
0.0
 20
0.0
 30
0.0
  3
Taselis
  1

  0
LWPOLYLINE
  5
2D9
330
2D8
100
AcDbEntity
  8
Medis
100
AcDbPolyline
 90
        3
 70
     0
 43
0.0
 10
47.51928678782951
 20
2.725465264823924
 10
47.51928678782951
 20
52.72546526482392
 10
-2.480713212170485
 20
52.72546526482392
  0
ARC
  5
2DA
330
2D8
100
AcDbEntity
  8
hatch
100
AcDbCircle
 10
9.936681130283659
 20
5.30757679212752
 30
0.0
 40
27.84358727772876
100
AcDbArc
 50
354.6789553402742
 51
47.895843791943
  0
ARC
  5
2DB
330
2D8
100
AcDbEntity
  8
hatch
100
AcDbCircle
 10
4.493969352171006
 20
3.349279180444227
 30
0.0
 40
18.23049250814192
100
AcDbArc
 50
358.0390610315847
 51
65.28866051751889
  0
ARC
  5
2DC
330
2D8
100
AcDbEntity
  8
hatch
100
AcDbCircle
 10
0.0
 20
0.0
 30
0.0
 40
7.250294329101387
100
AcDbArc
 50
22.08062830991937
 51
110.0081282528801
  0
LINE
  5
2DD
330
2D8
100
AcDbEntity
  8
Medis
100
AcDbLine
 10
-2.480713212170485
 20
52.72546526482392
 30
0.0
 11
-2.480713212170485
 21
2.725465264823924
 31
0.0
  0
LINE
  5
2DE
330
2D8
100
AcDbEntity
  8
Medis
100
AcDbLine
 10
-2.480713212170485
 20
2.725465264823924
 30
0.0
 11
47.51928678782951
 21
2.725465264823924
 31
0.0
  0
LINE
  5
2DF
330
2D8
100
AcDbEntity
  8
hatch
100
AcDbLine
 10
15.817026632345
 20
8.472780682527172
 30
0.0
 11
44.42228716850104
 21
27.98388304566128
 31
0.0
  0
ARC
  5
2E0
330
2D8
100
AcDbEntity
  8
hatch
100
AcDbCircle
 10
3.028791491869469
 20
9.14557503868059
 30
0.0
 40
40.45755794908456
100
AcDbArc
 50
11.02524189206439
 51
73.77367683879859
  0
ARC
  5
2E1
330
2D8
100
AcDbEntity
  8
hatch
100
AcDbCircle
 10
-3.540143199553654
 20
9.581033035634391
 30
0.0
 40
22.18418094587978
100
AcDbArc
 50
43.87388354679734
 51
87.26273583491048
  0
LINE
  5
2E2
330
2D8
100
AcDbEntity
  8
hatch
100
AcDbLine
 10
2.692260615362101
 20
12.17316119744077
 30
0.0
 11
13.12476725364695
 21
42.78540840705
 31
0.0
  0
ENDBLK
  5
2E4
330
2D8
100
AcDbEntity
  8
0
 48
10.0
100
AcDbBlockEnd
  0
BLOCK
  5
329
330
2E8
100
AcDbEntity
  8
0
100
AcDbBlockBegin
  2
kivi rooviga
 70
     0
 10
0.0
 20
0.0
 30
0.0
  3
kivi rooviga
  1

  0
INSERT
  5
2E9
330
2E8
100
AcDbEntity
  8
Medis
 48
10.0
100
AcDbBlockReference
  2
Taselis
 10
-37.96467235486431
 20
-28.70878664662711
 30
0.0
 50
33.81387788677956
  0
LINE
  5
2EA
330
2E8
100
AcDbEntity
  8
hatch
  6
Continuous
 48
10.0
100
AcDbLine
 10
-120.0205544020284
 20
-6.924743486859256
 30
0.0
 11
-120.0205544020284
 21
6.739550573434939
 31
0.0
  0
LINE
  5
2EB
330
2E8
100
AcDbEntity
  8
hatch
  6
Continuous
 48
10.0
100
AcDbLine
 10
-126.3705544020288
 20
-10.38312300148743
 30
0.0
 11
-126.3705544020288
 21
3.281171058804943
 31
0.0
  0
LINE
  5
2EC
330
2E8
100
AcDbEntity
  8
hatch
  6
Continuous
 48
10.0
100
AcDbLine
 10
-132.7205544020291
 20
-13.84150251611742
 30
0.0
 11
-132.7205544020291
 21
-0.1772084558232336
 31
0.0
  0
LINE
  5
2ED
330
2E8
100
AcDbEntity
  8
hatch
  6
Continuous
 48
10.0
100
AcDbLine
 10
-139.0705544020277
 20
-17.2998820307456
 30
0.0
 11
-139.0705544020277
 21
-3.63558797045141
 31
0.0
  0
LINE
  5
2EE
330
2E8
100
AcDbEntity
  8
hatch
  6
Continuous
 48
10.0
100
AcDbLine
 10
-145.420554402028
 20
-20.75826154537378
 30
0.0
 11
-145.420554402028
 21
-7.093967485079588
 31
0.0
  0
LINE
  5
2EF
330
2E8
100
AcDbEntity
  8
hatch
  6
Continuous
 48
10.0
100
AcDbLine
 10
-151.7705544020284
 20
-24.21664106000196
 30
0.0
 11
-151.7705544020284
 21
-10.55234699970776
 31
0.0
  0
LINE
  5
2F0
330
2E8
100
AcDbEntity
  8
hatch
  6
Continuous
 48
10.0
100
AcDbLine
 10
-158.1205544020288
 20
-27.67502057463014
 30
0.0
 11
-158.1205544020288
 21
-14.01072651433776
 31
0.0
  0
LINE
  5
2F1
330
2E8
100
AcDbEntity
  8
hatch
  6
Continuous
 48
10.0
100
AcDbLine
 10
-164.4705544020291
 20
-31.13340008926013
 30
0.0
 11
-164.4705544020291
 21
-17.46910602896593
 31
0.0
  0
LINE
  5
2F2
330
2E8
100
AcDbEntity
  8
hatch
  6
Continuous
 48
10.0
100
AcDbLine
 10
-170.8205544020277
 20
-34.59177960388831
 30
0.0
 11
-170.8205544020277
 21
-20.92748554359411
 31
0.0
  0
LWPOLYLINE
  5
2F3
330
2E8
100
AcDbEntity
  8
cherpes
  6
Continuous
100
AcDbPolyline
 90
        8
 70
   128
 43
0.0
 10
-329.4893082831344
 20
-133.0118327800126
 10
-325.7417219970042
 20
-120.3000414376773
 42
-0.1989122287127879
 10
-323.8181486195438
 20
-117.918353718739
 10
-26.35777877368616
 20
44.08650446846434
 42
-0.3677254187910698
 10
-21.28462774494744
 20
43.02614817824826
 10
-16.13839235376633
 20
36.39521301673369
 42
0.3677253557588628
 10
-11.0652421052049
 20
35.3348563016126
 10
0.8767087814927663
 20
41.83875810850906
  0
LWPOLYLINE
  5
2F4
330
2E8
100
AcDbEntity
  8
cherpes
  6
Continuous
100
AcDbPolyline
 90
       14
 70
   128
 43
0.0
 10
-325.7417220349374
 20
-120.3000424081973
 10
-329.4893044383929
 20
-133.0118343952243
 42
-0.4142134924785241
 10
-336.9410867904511
 20
-137.0702728382447
 10
-340.1195325624915
 20
-136.1332313103329
 42
0.4142104095021589
 10
-345.0873755592232
 20
-138.8388165507338
 10
-345.4589035250113
 20
-140.0989897584594
 42
-0.4142088631848201
 10
-350.4267262657953
 20
-142.8045809704243
 10
-351.7115926358905
 20
-142.4257953001714
 42
0.5973386449645318
 10
-356.6683094489411
 20
-147.4307075928344
 42
-0.3561150479151772
 10
-359.5369932633305
 20
-154.4521619081486
 10
-367.9677235162411
 20
-159.0437626640567
 10
-373.7072227021593
 20
-148.5053530775866
 42
-0.4142135623730951
 10
-367.7085831917605
 20
-128.1579619911525
 10
-12.03716763693899
 20
65.55018564565319
  0
LWPOLYLINE
  5
2F5
330
2E8
100
AcDbEntity
  8
cherpes
  6
Continuous
100
AcDbPolyline
 90
        4
 70
   128
 43
0.0
 10
-373.7072227021593
 20
-148.5053530775866
 10
-390.9257260379066
 20
-116.8901137091296
 42
-0.4142135623730951
 10
-384.927086527506
 20
-96.54272262269195
 10
-92.01427537791586
 20
62.98541370045416
  0
LINE
  5
2F6
330
2E8
100
AcDbEntity
  8
hatch
  6
Continuous
 48
10.0
100
AcDbLine
 10
-12.07055440202771
 20
34.95204769925851
 30
0.0
 11
-12.07055440202771
 21
65.53200232211941
 31
0.0
  0
HATCH
  5
2F7
330
2E8
100
AcDbEntity
  8
hatch
  6
Continuous
 48
10.0
100
AcDbHatch
 10
0.0
 20
0.0
 30
0.0
210
0.0
220
0.0
230
1.0
  2
ANSI31
 70
     0
 71
     0
 91
        1
 92
        7
 72
     0
 73
     1
 93
        3
 10
0.8767048393825689
 20
41.8387594005045
 10
-6.091554402027554
 20
54.63331997310627
 10
-6.091554402027554
 20
38.04365939843694
 97
        0
 75
     0
 76
     1
 52
45.0
 41
2.0
 77
     0
 78
     1
 53
90.0
 43
-11696.07055440202
 44
11026.64926084355
 45
-6.349999999999999
 46
0.0000000000000013
 79
     0
 47
0.4294323049079476
 98
        1
 10
-2.961523728095357
 20
42.00518200721956
  0
LWPOLYLINE
  5
2F8
330
2E8
100
AcDbEntity
  8
cherpes
  6
Continuous
100
AcDbPolyline
 90
        3
 70
   128
 43
0.0
 10
-21.58610174626608
 20
83.083169163957
 10
0.8767048393825689
 20
41.83875940050268
 10
-11.065239487339
 20
35.33485772737288
  0
LINE
  5
2F9
330
2E8
100
AcDbEntity
  8
hatch
  6
Continuous
 48
10.0
100
AcDbLine
 10
-18.42055440202807
 20
39.33578363191202
 30
0.0
 11
-18.42055440202807
 21
62.07362280749123
 31
0.0
  0
LINE
  5
2FA
330
2E8
100
AcDbEntity
  8
hatch
  6
Continuous
 48
10.0
100
AcDbLine
 10
-24.77055440202843
 20
44.56039845662973
 30
0.0
 11
-24.77055440202843
 21
58.61524329286305
 31
0.0
  0
LINE
  5
2FB
330
2E8
100
AcDbEntity
  8
hatch
  6
Continuous
 48
10.0
100
AcDbLine
 10
-31.1205544020288
 20
41.49256971793886
 30
0.0
 11
-31.1205544020288
 21
55.15686377823306
 31
0.0
  0
LINE
  5
2FC
330
2E8
100
AcDbEntity
  8
hatch
  6
Continuous
 48
10.0
100
AcDbLine
 10
-37.47055440202916
 20
38.03419020331068
 30
0.0
 11
-37.47055440202916
 21
51.69848426360488
 31
0.0
  0
LINE
  5
2FD
330
2E8
100
AcDbEntity
  8
hatch
  6
Continuous
 48
10.0
100
AcDbLine
 10
-43.82055440202771
 20
34.5758106886825
 30
0.0
 11
-43.82055440202771
 21
48.2401047489767
 31
0.0
  0
LINE
  5
2FE
330
2E8
100
AcDbEntity
  8
hatch
  6
Continuous
 48
10.0
100
AcDbLine
 10
-50.17055440202807
 20
31.11743117405433
 30
0.0
 11
-50.17055440202807
 21
44.78172523434852
 31
0.0
  0
LINE
  5
2FF
330
2E8
100
AcDbEntity
  8
hatch
  6
Continuous
 48
10.0
100
AcDbLine
 10
-56.52055440202843
 20
27.65905165942615
 30
0.0
 11
-56.52055440202843
 21
41.32334571972035
 31
0.0
  0
LINE
  5
300
330
2E8
100
AcDbEntity
  8
hatch
  6
Continuous
 48
10.0
100
AcDbLine
 10
-62.8705544020288
 20
24.20067214479615
 30
0.0
 11
-62.8705544020288
 21
37.86496620509035
 31
0.0
  0
LINE
  5
301
330
2E8
100
AcDbEntity
  8
hatch
  6
Continuous
 48
10.0
100
AcDbLine
 10
-69.22055440202917
 20
20.74229263016797
 30
0.0
 11
-69.22055440202917
 21
34.40658669046217
 31
0.0
  0
LINE
  5
302
330
2E8
100
AcDbEntity
  8
hatch
  6
Continuous
 48
10.0
100
AcDbLine
 10
-75.57055440202771
 20
17.2839131155398
 30
0.0
 11
-75.57055440202771
 21
30.948207175834
 31
0.0
  0
LINE
  5
303
330
2E8
100
AcDbEntity
  8
hatch
  6
Continuous
 48
10.0
100
AcDbLine
 10
-81.92055440202807
 20
13.82553360091162
 30
0.0
 11
-81.92055440202807
 21
27.48982766120582
 31
0.0
  0
LINE
  5
304
330
2E8
100
AcDbEntity
  8
hatch
  6
Continuous
 48
10.0
100
AcDbLine
 10
-88.27055440202844
 20
10.36715408628344
 30
0.0
 11
-88.27055440202844
 21
24.03144814657764
 31
0.0
  0
LINE
  5
305
330
2E8
100
AcDbEntity
  8
hatch
  6
Continuous
 48
10.0
100
AcDbLine
 10
-94.62055440202879
 20
6.908774571653452
 30
0.0
 11
-94.62055440202879
 21
20.57306863194765
 31
0.0
  0
LINE
  5
306
330
2E8
100
AcDbEntity
  8
hatch
  6
Continuous
 48
10.0
100
AcDbLine
 10
-100.9705544020291
 20
3.450395057025275
 30
0.0
 11
-100.9705544020291
 21
17.11468911731947
 31
0.0
  0
LINE
  5
307
330
2E8
100
AcDbEntity
  8
hatch
  6
Continuous
 48
10.0
100
AcDbLine
 10
-107.3205544020277
 20
-0.0079844576029018
 30
0.0
 11
-107.3205544020277
 21
13.65630960269129
 31
0.0
  0
LINE
  5
308
330
2E8
100
AcDbEntity
  8
hatch
  6
Continuous
 48
10.0
100
AcDbLine
 10
-113.670554402028
 20
-3.466363972231079
 30
0.0
 11
-113.670554402028
 21
10.19793008806311
 31
0.0
  0
LINE
  5
309
330
2E8
100
AcDbEntity
  8
hatch
  6
Continuous
 48
10.0
100
AcDbLine
 10
-177.170554402028
 20
-38.05015911851649
 30
0.0
 11
-177.170554402028
 21
-24.38586505822229
 31
0.0
  0
LINE
  5
30A
330
2E8
100
AcDbEntity
  8
hatch
  6
Continuous
 48
10.0
100
AcDbLine
 10
-183.5205544020284
 20
-41.50853863314466
 30
0.0
 11
-183.5205544020284
 21
-27.84424457285047
 31
0.0
  0
LINE
  5
30B
330
2E8
100
AcDbEntity
  8
hatch
  6
Continuous
 48
10.0
100
AcDbLine
 10
-189.8705544020288
 20
-44.96691814777284
 30
0.0
 11
-189.8705544020288
 21
-31.30262408747864
 31
0.0
  0
LINE
  5
30C
330
2E8
100
AcDbEntity
  8
hatch
  6
Continuous
 48
10.0
100
AcDbLine
 10
-196.2205544020291
 20
-48.42529766240284
 30
0.0
 11
-196.2205544020291
 21
-34.76100360210864
 31
0.0
  0
LINE
  5
30D
330
2E8
100
AcDbEntity
  8
hatch
  6
Continuous
 48
10.0
100
AcDbLine
 10
-202.5705544020277
 20
-51.88367717703101
 30
0.0
 11
-202.5705544020277
 21
-38.21938311673682
 31
0.0
  0
LINE
  5
30E
330
2E8
100
AcDbEntity
  8
hatch
  6
Continuous
 48
10.0
100
AcDbLine
 10
-208.920554402028
 20
-55.3420566916592
 30
0.0
 11
-208.920554402028
 21
-41.677762631365
 31
0.0
  0
LINE
  5
30F
330
2E8
100
AcDbEntity
  8
hatch
  6
Continuous
 48
10.0
100
AcDbLine
 10
-215.2705544020284
 20
-58.80043620628737
 30
0.0
 11
-215.2705544020284
 21
-45.13614214599317
 31
0.0
  0
LINE
  5
310
330
2E8
100
AcDbEntity
  8
hatch
  6
Continuous
 48
10.0
100
AcDbLine
 10
-221.6205544020287
 20
-62.25881572091555
 30
0.0
 11
-221.6205544020287
 21
-48.59452166062135
 31
0.0
  0
LINE
  5
311
330
2E8
100
AcDbEntity
  8
hatch
  6
Continuous
 48
10.0
100
AcDbLine
 10
-227.9705544020291
 20
-65.71719523554555
 30
0.0
 11
-227.9705544020291
 21
-52.05290117525135
 31
0.0
  0
LINE
  5
312
330
2E8
100
AcDbEntity
  8
hatch
  6
Continuous
 48
10.0
100
AcDbLine
 10
-234.3205544020277
 20
-69.17557475017372
 30
0.0
 11
-234.3205544020277
 21
-55.51128068987953
 31
0.0
  0
LINE
  5
313
330
2E8
100
AcDbEntity
  8
hatch
  6
Continuous
 48
10.0
100
AcDbLine
 10
-240.670554402028
 20
-72.6339542648019
 30
0.0
 11
-240.670554402028
 21
-58.9696602045077
 31
0.0
  0
LINE
  5
314
330
2E8
100
AcDbEntity
  8
hatch
  6
Continuous
 48
10.0
100
AcDbLine
 10
-247.0205544020284
 20
-76.09233377943008
 30
0.0
 11
-247.0205544020284
 21
-62.42803971913588
 31
0.0
  0
LINE
  5
315
330
2E8
100
AcDbEntity
  8
hatch
  6
Continuous
 48
10.0
100
AcDbLine
 10
-253.3705544020288
 20
-79.55071329405825
 30
0.0
 11
-253.3705544020288
 21
-65.88641923376406
 31
0.0
  0
LINE
  5
316
330
2E8
100
AcDbEntity
  8
hatch
  6
Continuous
 48
10.0
100
AcDbLine
 10
-259.7205544020291
 20
-83.00909280868642
 30
0.0
 11
-259.7205544020291
 21
-69.34479874839405
 31
0.0
  0
LINE
  5
317
330
2E8
100
AcDbEntity
  8
hatch
  6
Continuous
 48
10.0
100
AcDbLine
 10
-266.0705544020277
 20
-86.46747232331643
 30
0.0
 11
-266.0705544020277
 21
-72.80317826302223
 31
0.0
  0
LINE
  5
318
330
2E8
100
AcDbEntity
  8
hatch
  6
Continuous
 48
10.0
100
AcDbLine
 10
-272.420554402028
 20
-89.9258518379446
 30
0.0
 11
-272.420554402028
 21
-76.26155777765041
 31
0.0
  0
LINE
  5
319
330
2E8
100
AcDbEntity
  8
hatch
  6
Continuous
 48
10.0
100
AcDbLine
 10
-278.7705544020284
 20
-93.38423135257277
 30
0.0
 11
-278.7705544020284
 21
-79.71993729227858
 31
0.0
  0
LINE
  5
31A
330
2E8
100
AcDbEntity
  8
hatch
  6
Continuous
 48
10.0
100
AcDbLine
 10
-285.1205544020288
 20
-96.84261086720097
 30
0.0
 11
-285.1205544020288
 21
-83.17831680690677
 31
0.0
  0
LINE
  5
31B
330
2E8
100
AcDbEntity
  8
hatch
  6
Continuous
 48
10.0
100
AcDbLine
 10
-291.4705544020291
 20
-100.3009903818291
 30
0.0
 11
-291.4705544020291
 21
-86.63669632153675
 31
0.0
  0
LINE
  5
31C
330
2E8
100
AcDbEntity
  8
hatch
  6
Continuous
 48
10.0
100
AcDbLine
 10
-297.8205544020277
 20
-103.7593698964591
 30
0.0
 11
-297.8205544020277
 21
-90.09507583616494
 31
0.0
  0
LINE
  5
31D
330
2E8
100
AcDbEntity
  8
hatch
  6
Continuous
 48
10.0
100
AcDbLine
 10
-304.170554402028
 20
-107.2177494110873
 30
0.0
 11
-304.170554402028
 21
-93.55345535079312
 31
0.0
  0
LINE
  5
31E
330
2E8
100
AcDbEntity
  8
hatch
  6
Continuous
 48
10.0
100
AcDbLine
 10
-310.5205544020284
 20
-110.6761289257155
 30
0.0
 11
-310.5205544020284
 21
-97.01183486542129
 31
0.0
  0
LINE
  5
31F
330
2E8
100
AcDbEntity
  8
hatch
  6
Continuous
 48
10.0
100
AcDbLine
 10
-316.8705544020288
 20
-114.1345084403436
 30
0.0
 11
-316.8705544020288
 21
-100.4702143800494
 31
0.0
  0
LINE
  5
320
330
2E8
100
AcDbEntity
  8
hatch
  6
Continuous
 48
10.0
100
AcDbLine
 10
-323.2205544020291
 20
-117.5928879549718
 30
0.0
 11
-323.2205544020291
 21
-103.9285938946776
 31
0.0
  0
LINE
  5
321
330
2E8
100
AcDbEntity
  8
hatch
  6
Continuous
 48
10.0
100
AcDbLine
 10
-329.5705544020277
 20
-133.2663925172781
 30
0.0
 11
-329.5705544020277
 21
-107.3869734093076
 31
0.0
  0
LINE
  5
322
330
2E8
100
AcDbEntity
  8
hatch
  6
Continuous
 48
10.0
100
AcDbLine
 10
-335.920554402028
 20
-137.276942824148
 30
0.0
 11
-335.920554402028
 21
-110.8453529239358
 31
0.0
  0
LINE
  5
323
330
2E8
100
AcDbEntity
  8
hatch
  6
Continuous
 48
10.0
100
AcDbLine
 10
-342.2705544020284
 20
-136.1021835688769
 30
0.0
 11
-342.2705544020284
 21
-114.3037324385639
 31
0.0
  0
LINE
  5
324
330
2E8
100
AcDbEntity
  8
hatch
  6
Continuous
 48
10.0
100
AcDbLine
 10
-348.6205544020287
 20
-142.9104563603249
 30
0.0
 11
-348.6205544020287
 21
-117.7621119531921
 31
0.0
  0
LINE
  5
325
330
2E8
100
AcDbEntity
  8
hatch
  6
Continuous
 48
10.0
100
AcDbLine
 10
-354.9705544020291
 20
-142.8754816001618
 30
0.0
 11
-354.9705544020291
 21
-121.2204914678203
 31
0.0
  0
LINE
  5
326
330
2E8
100
AcDbEntity
  8
hatch
  6
Continuous
 48
10.0
100
AcDbLine
 10
-361.3205544020277
 20
-155.4235369168344
 30
0.0
 11
-361.3205544020277
 21
-124.6788709824503
 31
0.0
  0
LINE
  5
327
330
2E8
100
AcDbEntity
  8
hatch
  6
Continuous
 48
10.0
100
AcDbLine
 10
-367.670554402028
 20
-158.8819164314626
 30
0.0
 11
-367.670554402028
 21
-128.1372504970785
 31
0.0
  0
LINE
  5
328
330
2E8
100
AcDbEntity
  8
hatch
  6
Continuous
 48
10.0
100
AcDbLine
 10
-374.0205544020284
 20
-147.8974409224464
 30
0.0
 11
-374.0205544020284
 21
-134.7645136566933
 31
0.0
  0
ENDBLK
  5
32A
330
2E8
100
AcDbEntity
  8
0
100
AcDbBlockEnd
  0
BLOCK
  5
3C1
330
3BE
100
AcDbEntity
  8
0
100
AcDbBlockBegin
  2
harjakinnitus klamber
 70
     0
 10
0.0
 20
0.0
 30
0.0
  3
harjakinnitus klamber
  1

  0
LINE
  5
3BF
330
3BE
100
AcDbEntity
  8
minu
370
    30
100
AcDbLine
 10
0.0
 20
-45.0
 30
0.0
 11
-128.7815199501228
 21
-131.2572902387742
 31
0.0
  0
LINE
  5
3C0
330
3BE
100
AcDbEntity
  8
minu
370
    30
100
AcDbLine
 10
0.0
 20
0.0
 30
0.0
 11
0.0
 21
-45.0
 31
0.0
  0
ENDBLK
  5
3C2
330
3BE
100
AcDbEntity
  8
0
100
AcDbBlockEnd
  0
BLOCK
  5
3DF
330
3D2
100
AcDbEntity
  8
0
100
AcDbBlockBegin
  2
harjakivi est
 70
     0
 10
0.0
 20
0.0
 30
0.0
  3
harjakivi est
  1

  0
HATCH
  5
3D3
330
3D2
100
AcDbEntity
  8
minu
100
AcDbHatch
 10
0.0
 20
0.0
 30
612.0750113412469
210
0.0
220
0.0
230
1.0
  2
ANSI31
 70
     0
 71
     1
 91
        1
 92
        7
 72
     1
 73
     1
 93
        4
 10
10.49999999999818
 20
13.49700663995508
 42
0.0
 10
27.99999999999818
 20
13.49700663995508
 42
-0.5948717948717923
 10
222.9999999999981
 20
13.49700663995508
 42
0.0
 10
240.4999999999982
 20
13.49700663995508
 42
0.6782608695652167
 97
        4
330
3DA
330
3DC
330
3D9
330
3D8
 75
     0
 76
     1
 52
0.0
 41
1.0
 77
     0
 78
     1
 53
45.0
 43
-4159.483248760419
 44
-3606.413644782652
 45
-2.245064030267287
 46
2.245064030267288
 79
     0
 47
0.4714111327995424
 98
        1
 10
119.2918358711731
 20
85.06103277603688
  0
LINE
  5
3D4
330
3D2
100
AcDbEntity
  8
minu
100
AcDbLine
 10
240.4999999999982
 20
13.49700663995508
 30
0.0
 11
250.9999999999982
 21
0.0000000000004547
 31
0.0
  0
LINE
  5
3D5
330
3D2
100
AcDbEntity
  8
minu
100
AcDbLine
 10
222.9999999999981
 20
13.49700663995508
 30
0.0
 11
242.9999999999981
 21
0.0000000000004547
 31
0.0
  0
LINE
  5
3D6
330
3D2
100
AcDbEntity
  8
minu
100
AcDbLine
 10
27.99999999999818
 20
13.49700663995508
 30
0.0
 11
7.999999999998181
 21
0.0000000000004547
 31
0.0
  0
LINE
  5
3D7
330
3D2
100
AcDbEntity
  8
minu
100
AcDbLine
 10
10.49999999999818
 20
13.49700663995508
 30
0.0
 11
-0.000000000001819
 21
0.0000000000004547
 31
0.0
  0
ARC
  5
3D8
102
{ACAD_REACTORS
330
3D3
102
}
330
3D2
100
AcDbEntity
  8
minu
100
AcDbCircle
 10
125.4999999999981
 20
-32.27863438568602
 30
0.0
 40
123.775641025641
100
AcDbArc
 50
21.70498172049769
 51
158.2950182795022
  0
LINE
  5
3D9
102
{ACAD_REACTORS
330
3D3
102
}
330
3D2
100
AcDbEntity
  8
minu
100
AcDbLine
 10
222.9999999999981
 20
13.49700663995508
 30
0.0
 11
240.4999999999982
 21
13.49700663995508
 31
0.0
  0
LINE
  5
3DA
102
{ACAD_REACTORS
330
3D3
102
}
330
3D2
100
AcDbEntity
  8
minu
100
AcDbLine
 10
27.99999999999818
 20
13.49700663995508
 30
0.0
 11
10.49999999999818
 21
13.49700663995508
 31
0.0
  0
LINE
  5
3DB
330
3D2
100
AcDbEntity
  8
minu
100
AcDbLine
 10
242.9999999999981
 20
0.0000000000004547
 30
0.0
 11
250.9999999999982
 21
0.0000000000004547
 31
0.0
  0
ARC
  5
3DC
102
{ACAD_REACTORS
330
3D3
102
}
330
3D2
100
AcDbEntity
  8
minu
100
AcDbCircle
 10
125.4999999999981
 20
-39.45342439452815
 30
0.0
 40
110.9504310344829
100
AcDbArc
 50
28.50555954909337
 51
151.4944404509066
  0
LINE
  5
3DD
330
3D2
100
AcDbEntity
  8
minu
100
AcDbLine
 10
-0.000000000001819
 20
0.0000000000004547
 30
0.0
 11
7.999999999998181
 21
0.0000000000009095
 31
0.0
  0
ARC
  5
3DE
330
3D2
100
AcDbEntity
  8
minu
100
AcDbCircle
 10
125.4999999999991
 20
-22.50119047618909
 30
0.0
 40
127.5011904761894
100
AcDbArc
 50
10.16469620970692
 51
169.835303790293
  0
ENDBLK
  5
3E0
330
3D2
100
AcDbEntity
  8
0
100
AcDbBlockEnd
  0
BLOCK
  5
511
330
50F
100
AcDbEntity
  8
0
100
AcDbBlockBegin
  2
veenina
 70
     0
 10
0.0
 20
0.0
 30
0.0
  3
veenina
  1

  0
LWPOLYLINE
  5
510
330
50F
100
AcDbEntity
  8
minu
100
AcDbPolyline
 90
       12
 70
     0
 43
0.0
 10
20.12520064714169
 20
5.949747468305758
 10
24.92850150604079
 20
1.146446609406666
 42
-0.198912367379661
 10
25.07494811544757
 20
0.7928932188133331
 10
25.07494811544757
 20
0.5
 42
-0.4142135623730951
 10
24.57494811544757
 20
0.0
 10
-24.57494811544757
 20
0.0000000000002274
 42
0.3152987888789831
 10
-25.04479442584056
 20
-0.3289899283370232
 10
-44.51799250446322
 20
-53.83116193391993
 42
0.5205670505517465
 10
-44.04814619407022
 20
-54.50217200558268
 10
-43.96932697862758
 20
-54.50217200558245
 42
0.1989123673796538
 10
-43.61577358803436
 20
-54.35572539617578
 10
-36.69115238557572
 20
-47.43110419371737
  0
ENDBLK
  5
512
330
50F
100
AcDbEntity
  8
0
100
AcDbBlockEnd
  0
BLOCK
  5
518
330
516
100
AcDbEntity
  8
0
100
AcDbBlockBegin
  2
Linnukaitse
 70
     0
 10
0.0
 20
0.0
 30
0.0
  3
Linnukaitse
  1

  0
LWPOLYLINE
  5
517
330
516
100
AcDbEntity
  8
minu
370
    40
100
AcDbPolyline
 90
        4
 70
     0
 43
0.0
 10
-14.73971647472404
 20
0.0
 10
14.73971647472404
 20
0.0
 42
0.2446984432290341
 10
15.55886851901306
 20
0.4264235636489957
 10
58.27851625160445
 20
61.43640332167433
  0
ENDBLK
  5
519
330
516
100
AcDbEntity
  8
0
100
AcDbBlockEnd
  0
BLOCK
  5
606
330
5F6
100
AcDbEntity
  8
0
100
AcDbBlockBegin
  2
harjatihend
 70
     0
 10
0.0
 20
0.0
 30
0.0
  3
harjatihend
  1

  0
LINE
  5
5F7
330
5F6
100
AcDbEntity
  8
tarpikl
100
AcDbLine
 10
79.83704677600781
 20
-29.43778940597804
 30
0.0
 11
49.43147164603579
 21
0.0
 31
0.0
  0
LINE
  5
5F8
330
5F6
100
AcDbEntity
  8
tarpikl
100
AcDbLine
 10
-29.49126973517923
 20
-30.90260794659525
 30
0.0
 11
0.0
 21
0.0
 31
0.0
  0
LINE
  5
5F9
330
5F6
100
AcDbEntity
  8
tarpikl
100
AcDbLine
 10
49.43147164603579
 20
0.0
 30
0.0
 11
0.0
 21
0.0
 31
0.0
  0
LINE
  5
5FA
330
5F6
100
AcDbEntity
  8
tarpikl
  6
Continuous
 48
20.0
100
AcDbLine
 10
-29.49126971352052
 20
-30.90260793494008
 30
0.0
 11
-95.77602722459142
 21
-77.5627022518006
 31
0.0
  0
LINE
  5
5FB
330
5F6
100
AcDbEntity
  8
tarpikl
  6
Continuous
 48
20.0
100
AcDbLine
 10
-29.4912697134041
 20
-30.90260793478455
 30
0.0
 11
-90.08156226969004
 21
-84.29293718721647
 31
0.0
  0
LINE
  5
5FC
330
5F6
100
AcDbEntity
  8
tarpikl
  6
Continuous
 48
20.0
100
AcDbLine
 10
-29.49126971340229
 20
-30.90260793478364
 30
0.0
 11
-83.83252603373604
 21
-90.36366017865976
 31
0.0000000000000143
  0
LINE
  5
5FD
330
5F6
100
AcDbEntity
  8
tarpikl
  6
Continuous
 48
20.0
100
AcDbLine
 10
-29.49126971340229
 20
-30.90260793478364
 30
0.0
 11
-78.11355784155876
 21
-95.0014369668529
 31
0.0000000000000143
  0
ARC
  5
5FE
330
5F6
100
AcDbEntity
  8
tarpikl
  6
Continuous
 48
20.0
100
AcDbCircle
 10
-24.46375372436978
 20
-22.99941447343553
 30
0.0
 40
89.7919413141016
100
AcDbArc
 50
211.1153395988095
 51
233.3096435381244
  0
LINE
  5
5FF
330
5F6
100
AcDbEntity
  8
tarpikl
  6
Continuous
 48
20.0
100
AcDbLine
 10
-29.49126971381701
 20
-30.90260793514835
 30
0.0
 11
-101.3372174813566
 21
-69.40052755230817
 31
0.0
  0
LINE
  5
600
330
5F6
100
AcDbEntity
  8
tarpikl
  6
Continuous
 48
20.0
100
AcDbLine
 10
79.83704675423268
 20
-29.43778939416734
 30
0.0
 11
140.4273393105349
 21
-82.82811864658015
 31
0.0
  0
LINE
  5
601
330
5F6
100
AcDbEntity
  8
tarpikl
  6
Continuous
 48
20.0
100
AcDbLine
 10
79.83704675423087
 20
-29.43778939416643
 30
0.0
 11
134.1783030745828
 21
-88.89884163802571
 31
0.0000000000000143
  0
LINE
  5
602
330
5F6
100
AcDbEntity
  8
tarpikl
  6
Continuous
 48
20.0
100
AcDbLine
 10
79.83704675423087
 20
-29.43778939416643
 30
0.0
 11
128.4593348824073
 21
-93.53661842622068
 31
0.0000000000000143
  0
ARC
  5
603
330
5F6
100
AcDbEntity
  8
tarpikl
  6
Continuous
 48
20.0
100
AcDbCircle
 10
74.80953076519563
 20
-21.53459593281968
 30
0.0
 40
89.7919413141016
100
AcDbArc
 50
306.6903564618755
 51
328.8846604011904
  0
LINE
  5
604
330
5F6
100
AcDbEntity
  8
tarpikl
  6
Continuous
 48
20.0
100
AcDbLine
 10
79.83704675434911
 20
-29.43778939432286
 30
0.0
 11
146.1218042654345
 21
-76.09788371116247
 31
0.0
  0
LINE
  5
605
330
5F6
100
AcDbEntity
  8
tarpikl
  6
Continuous
 48
20.0
100
AcDbLine
 10
79.8370467546456
 20
-29.43778939453114
 30
0.0
 11
151.682994522197
 21
-67.93570901166868
 31
0.0
  0
ENDBLK
  5
607
330
5F6
100
AcDbEntity
  8
0
100
AcDbBlockEnd
  0
BLOCK
  5
627
330
623
100
AcDbEntity
  8
0
100
AcDbBlockBegin
  2
A3 raamjoon
 70
     0
 10
0.0
 20
0.0
 30
0.0
  3
A3 raamjoon
  1

  0
LINE
  5
624
330
623
100
AcDbEntity
  8
kiri
 48
0.1
100
AcDbLine
 10
0.0
 20
7.0
 30
0.0
 11
7.0
 21
7.0
 31
0.0
  0
LINE
  5
625
330
623
100
AcDbEntity
  8
kiri
 48
0.1
100
AcDbLine
 10
0.0
 20
7.0
 30
0.0
 11
0.0
 21
0.0
 31
0.0
  0
LWPOLYLINE
  5
626
330
623
100
AcDbEntity
  8
kiri
 48
0.1
100
AcDbPolyline
 90
        4
 70
     1
 43
0.0
 10
0.0
 20
7.0
 10
-406.0
 20
7.0
 10
-406.0
 20
290.0
 10
0.0
 20
290.0
  0
ENDBLK
  5
628
330
623
100
AcDbEntity
  8
0
100
AcDbBlockEnd
  0
BLOCK
  5
634
330
632
100
AcDbEntity
  8
0
 48
20.0
100
AcDbBlockBegin
  2
_Oblique
 70
     0
 10
0.0
 20
0.0
 30
0.0
  3
_Oblique
  1

  0
LINE
  5
633
330
632
100
AcDbEntity
  8
0
  6
ByBlock
 62
     0
370
    -2
100
AcDbLine
 10
-0.5
 20
-0.5
 30
0.0
 11
0.5
 21
0.5
 31
0.0
  0
ENDBLK
  5
635
330
632
100
AcDbEntity
  8
0
 48
20.0
100
AcDbBlockEnd
  0
BLOCK
  5
63D
330
63A
100
AcDbEntity
  8
0
100
AcDbBlockBegin
  2
nael
 70
     0
 10
0.0
 20
0.0
 30
0.0
  3
nael
  1

  0
LINE
  5
63B
330
63A
100
AcDbEntity
  8
0
 48
10.0
100
AcDbLine
 10
2.798330843790608
 20
0.0
 30
0.0
 11
-37.94444871901214
 21
0.0
 31
0.0
  0
LINE
  5
63C
330
63A
100
AcDbEntity
  8
0
 48
10.0
100
AcDbLine
 10
0.0
 20
5.813018278277013
 30
0.0
 11
0.0
 21
-5.411719405645271
 31
0.0
  0
ENDBLK
  5
63E
330
63A
100
AcDbEntity
  8
0
100
AcDbBlockEnd
  0
ENDSEC
  0
SECTION
  2
ENTITIES
  0
LINE
  5
2A9
102
{ACAD_REACTORS
330
5C1
102
}
330
1F
100
AcDbEntity
  8
minu
100
AcDbLine
 10
770.9470875528328
 20
343.9218891619055
 30
0.0
 11
1272.75882086855
 21
478.3819378563141
 31
0.0
  0
LINE
  5
2AD
102
{ACAD_REACTORS
330
5C1
102
}
330
1F
100
AcDbEntity
  8
minu
100
AcDbLine
 10
1272.75882086855
 20
509.840501981463
 30
0.0
 11
1272.75882086855
 21
-195.1883772849728
 31
0.0
  0
LINE
  5
2AE
330
1F
100
AcDbEntity
  8
minu
100
AcDbLine
 10
780.1523086739694
 20
309.567536242918
 30
0.0
 11
725.6537546598917
 21
512.9589087624926
 31
0.0
  0
LINE
  5
2C5
330
1F
100
AcDbEntity
  8
minu
100
AcDbLine
 10
1672.758820868551
 20
459.8405019814631
 30
0.0
 11
1672.758820868551
 21
-195.1883772849728
 31
0.0
  0
LINE
  5
2C6
330
1F
100
AcDbEntity
  8
minu
100
AcDbLine
 10
1272.75882086855
 20
459.840501981463
 30
0.0
 11
2791.425513831244
 21
459.8405019814631
 31
0.0
  0
LINE
  5
2C7
330
1F
100
AcDbEntity
  8
minu
100
AcDbLine
 10
1272.75882086855
 20
509.840501981463
 30
0.0
 11
1422.75882086855
 21
509.8405019814631
 31
0.0
  0
LINE
  5
2C9
330
1F
100
AcDbEntity
  8
minu
100
AcDbLine
 10
1422.75882086855
 20
509.840501981463
 30
0.0
 11
1422.75882086855
 21
459.840501981463
 31
0.0
  0
LINE
  5
2CA
330
1F
100
AcDbEntity
  8
minu
100
AcDbLine
 10
1272.75882086855
 20
459.840501981463
 30
0.0
 11
1422.75882086855
 21
509.8405019814631
 31
0.0
  0
LINE
  5
2CB
330
1F
100
AcDbEntity
  8
minu
100
AcDbLine
 10
1422.75882086855
 20
459.840501981463
 30
0.0
 11
1272.75882086855
 21
509.840501981463
 31
0.0
  0
LINE
  5
2CC
330
1F
100
AcDbEntity
  8
minu
100
AcDbLine
 10
1390.16378051677
 20
509.840501981463
 30
0.0
 11
1979.210273344884
 21
667.6750340391413
 31
0.0
  0
LINE
  5
2CD
330
1F
100
AcDbEntity
  8
minu
100
AcDbLine
 10
1272.75882086855
 20
609.840501981463
 30
0.0
 11
2791.425513831244
 21
609.8405019814633
 31
0.0
  0
LINE
  5
2CE
330
1F
100
AcDbEntity
  8
minu
100
AcDbLine
 10
1272.75882086855
 20
509.840501981463
 30
0.0
 11
1272.75882086855
 21
609.840501981463
 31
0.0
  0
LINE
  5
2D6
330
1F
100
AcDbEntity
  8
minu
100
AcDbLine
 10
725.6537546598917
 20
512.9589087624924
 30
0.0
 11
1929.931136391555
 21
835.6440606605586
 31
0.0
  0
LINE
  5
32D
330
1F
100
AcDbEntity
  8
minu
100
AcDbLine
 10
759.739894150776
 20
289.1551217197248
 30
0.0
 11
682.0941806200198
 21
578.9328696064451
 31
0.0
  0
INSERT
  5
32E
330
1F
100
AcDbEntity
  8
minu
100
AcDbBlockReference
  2
kivi rooviga
 10
1350.402516800957
 20
680.3597247274801
 30
0.0
 50
341.186
  0
INSERT
  5
330
330
1F
100
AcDbEntity
  8
minu
100
AcDbBlockReference
  2
kivi rooviga
 10
1688.476556002131
 20
770.9463905133623
 30
0.0
 50
341.186
  0
INSERT
  5
334
330
1F
100
AcDbEntity
  8
minu
100
AcDbBlockReference
  2
kivi rooviga
 10
2488.974151663315
 20
985.435985768299
 30
0.0
 50
341.186
  0
INSERT
  5
335
330
1F
100
AcDbEntity
  8
minu
100
AcDbBlockReference
  2
kivi rooviga
 10
2827.048383929067
 20
1076.021931024295
 30
0.0
 50
341.186
  0
INSERT
  5
336
330
1F
100
AcDbEntity
  8
minu
100
AcDbBlockReference
  2
kivi rooviga
 10
3165.122616194818
 20
1166.607876280293
 30
0.0
 50
341.186
  0
INSERT
  5
33B
330
1F
100
AcDbEntity
  8
Medis
 48
10.0
100
AcDbBlockReference
  2
Taselis
 10
967.1367284926761
 20
574.8424618440551
 30
0.0
 50
14.99987788678017
  0
LINE
  5
33C
330
1F
100
AcDbEntity
  8
hatch
  6
Continuous
 48
10.0
100
AcDbLine
 10
896.4706949477099
 20
622.2914359668619
 30
0.0
 11
900.9137440344138
 21
635.2132101089575
 31
0.0
  0
LINE
  5
33D
330
1F
100
AcDbEntity
  8
hatch
  6
Continuous
 48
10.0
100
AcDbLine
 10
889.3412365712736
 20
621.0857361178682
 30
0.0
 11
893.7842856579768
 21
634.0075102599621
 31
0.0
  0
LINE
  5
33E
330
1F
100
AcDbEntity
  8
hatch
  6
Continuous
 48
10.0
100
AcDbLine
 10
882.2117781948364
 20
619.8800362688725
 30
0.0
 11
886.6548272815403
 21
632.8018104109681
 31
0.0
  0
LINE
  5
33F
330
1F
100
AcDbEntity
  8
hatch
  6
Continuous
 48
10.0
100
AcDbLine
 10
875.0823198184017
 20
618.6743364198782
 30
0.0
 11
879.5253689051055
 21
631.5961105619737
 31
0.0
  0
LINE
  5
340
330
1F
100
AcDbEntity
  8
hatch
  6
Continuous
 48
10.0
100
AcDbLine
 10
867.9528614419652
 20
617.4686365708843
 30
0.0
 11
872.395910528669
 21
630.3904107129799
 31
0.0
  0
LINE
  5
341
330
1F
100
AcDbEntity
  8
hatch
  6
Continuous
 48
10.0
100
AcDbLine
 10
860.8234030655285
 20
616.2629367218904
 30
0.0
 11
865.2664521522323
 21
629.1847108639861
 31
0.0
  0
LINE
  5
342
330
1F
100
AcDbEntity
  8
hatch
  6
Continuous
 48
10.0
100
AcDbLine
 10
853.6939446890919
 20
615.0572368728965
 30
0.0
 11
858.1369937757953
 21
627.9790110149905
 31
0.0
  0
LINE
  5
343
330
1F
100
AcDbEntity
  8
hatch
  6
Continuous
 48
10.0
100
AcDbLine
 10
846.5644863126549
 20
613.851537023901
 30
0.0
 11
851.0075353993588
 21
626.7733111659968
 31
0.0
  0
LINE
  5
344
330
1F
100
AcDbEntity
  8
hatch
  6
Continuous
 48
10.0
100
AcDbLine
 10
839.4350279362202
 20
612.6458371749065
 30
0.0
 11
843.8780770229241
 21
625.5676113170022
 31
0.0
  0
LWPOLYLINE
  5
345
330
1F
100
AcDbEntity
  8
cherpes
  6
Continuous
100
AcDbPolyline
 90
        8
 70
   128
 43
0.0
 10
657.3863309848469
 20
571.1662968727112
 10
665.0636084218245
 20
581.9687712771585
 42
-0.1989122287127879
 10
667.6570783820992
 20
583.5955731993876
 10
1001.630515461687
 20
640.0755610741811
 42
-0.3677254187910698
 10
1006.083207746177
 20
637.4232510918759
 10
1008.793696910865
 20
629.4793044464256
 42
0.3677253557588628
 10
1013.246388319412
 20
626.8269943159853
 10
1026.654204804379
 20
629.0944569506275
  0
LWPOLYLINE
  5
346
330
1F
100
AcDbEntity
  8
cherpes
  6
Continuous
100
AcDbPolyline
 90
       14
 70
   128
 43
0.0
 10
665.0636080703807
 20
581.9687703717111
 10
657.3863340954662
 20
571.1662940951234
 42
-0.4142134924785241
 10
649.0198506735928
 20
569.7513955228762
 10
646.3188083276393
 20
571.6710138693711
 42
0.4142104095021589
 10
640.7411771033535
 20
570.7277824772289
 10
639.9800831284164
 20
569.6568924249143
 42
-0.4142088631848201
 10
634.4024691176673
 20
568.7136487993285
 10
633.3105876311422
 20
569.4896352633691
 42
0.5973386449645318
 10
626.9958343219134
 20
566.3684048544419
 42
-0.3561150479151772
 10
621.9999559972525
 20
560.6612718356513
 10
612.5343590805463
 20
559.0604954273303
 10
610.5333891833782
 20
570.8924879471044
 42
-0.4142135623730951
 10
622.8221705544224
 20
588.183695320064
 10
1022.152021402653
 20
655.7164468202256
  0
LWPOLYLINE
  5
347
330
1F
100
AcDbEntity
  8
cherpes
  6
Continuous
100
AcDbPolyline
 90
        4
 70
   128
 43
0.0
 10
610.5333891833782
 20
570.8924879471044
 10
604.530477477471
 20
606.3884774177343
 42
-0.4142135623730951
 10
616.819258848518
 20
623.6796847906966
 10
945.6869273549649
 20
679.2962095421196
  0
LINE
  5
348
330
1F
100
AcDbEntity
  8
hatch
  6
Continuous
 48
10.0
100
AcDbLine
 10
1012.171231726026
 20
626.7918725296054
 30
0.0
 11
1022.114536433831
 21
655.7101075418598
 31
0.0
  0
HATCH
  5
349
330
1F
100
AcDbEntity
  8
hatch
  6
Continuous
 48
10.0
100
AcDbHatch
 10
0.0
 20
0.0
 30
0.0
210
0.0
220
0.0
230
1.0
  2
ANSI31
 70
     0
 71
     0
 91
        1
 92
        7
 72
     0
 73
     1
 93
        3
 10
1026.654201496586
 20
629.0944594542227
 10
1024.224847205195
 20
643.459544028578
 10
1018.830592958341
 20
627.7713682549888
 97
        0
 75
     0
 76
     1
 52
26.02487648433672
 41
2.0
 77
     0
 78
     1
 53
71.02487648433672
 43
-6462.884439745628
 44
14820.33992556566
 45
-6.004939987403968
 46
2.064750771322493
 79
     0
 47
0.4294323049079476
 98
        1
 10
1023.078656457206
 20
630.4998678260469
  0
LWPOLYLINE
  5
34A
330
1F
100
AcDbEntity
  8
cherpes
  6
Continuous
100
AcDbPolyline
 90
        3
 70
   128
 43
0.0
 10
1018.822960768451
 20
675.4015937328395
 10
1026.654201496585
 20
629.0944594542211
 10
1013.246391258619
 20
626.8269948130506
  0
LINE
  5
34B
330
1F
100
AcDbEntity
  8
hatch
  6
Continuous
 48
10.0
100
AcDbLine
 10
1007.591696801334
 20
633.0021463239532
 30
0.0
 11
1014.985078057394
 21
654.504407692866
 31
0.0
  0
LINE
  5
34C
330
1F
100
AcDbEntity
  8
hatch
  6
Continuous
 48
10.0
100
AcDbLine
 10
1003.285580040575
 20
640.0076055172807
 30
0.0
 11
1007.855619680958
 21
653.2987078438722
 31
0.0
  0
LINE
  5
34D
330
1F
100
AcDbEntity
  8
hatch
  6
Continuous
 48
10.0
100
AcDbLine
 10
996.2831122178171
 20
639.171233852781
 30
0.0
 11
1000.72616130452
 21
652.0930079948766
 31
0.0
  0
LINE
  5
34E
330
1F
100
AcDbEntity
  8
hatch
  6
Continuous
 48
10.0
100
AcDbLine
 10
989.1536538413806
 20
637.9655340037872
 30
0.0
 11
993.5967029280845
 21
650.8873081458828
 31
0.0
  0
LINE
  5
34F
330
1F
100
AcDbEntity
  8
hatch
  6
Continuous
 48
10.0
100
AcDbLine
 10
982.0241954649459
 20
636.7598341547927
 30
0.0
 11
986.4672445516497
 21
649.6816082968883
 31
0.0
  0
LINE
  5
350
330
1F
100
AcDbEntity
  8
hatch
  6
Continuous
 48
10.0
100
AcDbLine
 10
974.894737088509
 20
635.5541343057989
 30
0.0
 11
979.337786175213
 21
648.4759084478945
 31
0.0
  0
LINE
  5
351
330
1F
100
AcDbEntity
  8
hatch
  6
Continuous
 48
10.0
100
AcDbLine
 10
967.7652787120727
 20
634.348434456805
 30
0.0
 11
972.2083277987767
 21
647.2702085989006
 31
0.0
  0
LINE
  5
352
330
1F
100
AcDbEntity
  8
hatch
  6
Continuous
 48
10.0
100
AcDbLine
 10
960.6358203356355
 20
633.1427346078093
 30
0.0
 11
965.0788694223395
 21
646.0645087499051
 31
0.0
  0
LINE
  5
353
330
1F
100
AcDbEntity
  8
hatch
  6
Continuous
 48
10.0
100
AcDbLine
 10
953.5063619591992
 20
631.9370347588155
 30
0.0
 11
957.9494110459032
 21
644.8588089009112
 31
0.0
  0
LINE
  5
354
330
1F
100
AcDbEntity
  8
hatch
  6
Continuous
 48
10.0
100
AcDbLine
 10
946.3769035827642
 20
630.7313349098213
 30
0.0
 11
950.8199526694681
 21
643.6531090519167
 31
0.0
  0
LINE
  5
355
330
1F
100
AcDbEntity
  8
hatch
  6
Continuous
 48
10.0
100
AcDbLine
 10
939.2474452063279
 20
629.5256350608274
 30
0.0
 11
943.6904942930318
 21
642.4474092029229
 31
0.0
  0
LINE
  5
356
330
1F
100
AcDbEntity
  8
hatch
  6
Continuous
 48
10.0
100
AcDbLine
 10
932.1179868298914
 20
628.3199352118336
 30
0.0
 11
936.5610359165954
 21
641.241709353929
 31
0.0
  0
LINE
  5
357
330
1F
100
AcDbEntity
  8
hatch
  6
Continuous
 48
10.0
100
AcDbLine
 10
924.9885284534544
 20
627.114235362838
 30
0.0
 11
929.4315775401583
 21
640.0360095049335
 31
0.0
  0
LINE
  5
358
330
1F
100
AcDbEntity
  8
hatch
  6
Continuous
 48
10.0
100
AcDbLine
 10
917.8590700770177
 20
625.9085355138441
 30
0.0
 11
922.3021191637217
 21
638.8303096559398
 31
0.0
  0
LINE
  5
359
330
1F
100
AcDbEntity
  8
hatch
  6
Continuous
 48
10.0
100
AcDbLine
 10
910.729611700583
 20
624.7028356648496
 30
0.0
 11
915.1726607872868
 21
637.6246098069453
 31
0.0
  0
LINE
  5
35A
330
1F
100
AcDbEntity
  8
hatch
  6
Continuous
 48
10.0
100
AcDbLine
 10
903.6001533241465
 20
623.4971358158558
 30
0.0
 11
908.0432024108503
 21
636.4189099579514
 31
0.0
  0
LINE
  5
35B
330
1F
100
AcDbEntity
  8
hatch
  6
Continuous
 48
10.0
100
AcDbLine
 10
832.3055695597837
 20
611.4401373259128
 30
0.0
 11
836.7486186464875
 21
624.3619114680084
 31
0.0
  0
LINE
  5
35C
330
1F
100
AcDbEntity
  8
hatch
  6
Continuous
 48
10.0
100
AcDbLine
 10
825.1761111833472
 20
610.2344374769189
 30
0.0
 11
829.619160270051
 21
623.1562116190145
 31
0.0
  0
LINE
  5
35D
330
1F
100
AcDbEntity
  8
hatch
  6
Continuous
 48
10.0
100
AcDbLine
 10
818.0466528069107
 20
609.0287376279251
 30
0.0
 11
822.4897018936147
 21
621.9505117700207
 31
0.0
  0
LINE
  5
35E
330
1F
100
AcDbEntity
  8
hatch
  6
Continuous
 48
10.0
100
AcDbLine
 10
810.9171944304735
 20
607.8230377789296
 30
0.0
 11
815.3602435171773
 21
620.744811921025
 31
0.0
  0
LINE
  5
35F
330
1F
100
AcDbEntity
  8
hatch
  6
Continuous
 48
10.0
100
AcDbLine
 10
803.7877360540388
 20
606.6173379299351
 30
0.0
 11
808.2307851407426
 21
619.5391120720308
 31
0.0
  0
LINE
  5
360
330
1F
100
AcDbEntity
  8
hatch
  6
Continuous
 48
10.0
100
AcDbLine
 10
796.6582776776022
 20
605.4116380809412
 30
0.0
 11
801.1013267643061
 21
618.3334122230369
 31
0.0
  0
LINE
  5
361
330
1F
100
AcDbEntity
  8
hatch
  6
Continuous
 48
10.0
100
AcDbLine
 10
789.5288193011658
 20
604.2059382319473
 30
0.0
 11
793.9718683878697
 21
617.1277123740431
 31
0.0
  0
LINE
  5
362
330
1F
100
AcDbEntity
  8
hatch
  6
Continuous
 48
10.0
100
AcDbLine
 10
782.3993609247293
 20
603.0002383829534
 30
0.0
 11
786.8424100114332
 21
615.9220125250492
 31
0.0
  0
LINE
  5
363
330
1F
100
AcDbEntity
  8
hatch
  6
Continuous
 48
10.0
100
AcDbLine
 10
775.2699025482923
 20
601.794538533958
 30
0.0
 11
779.712951634996
 21
614.7163126760537
 31
0.0
  0
LINE
  5
364
330
1F
100
AcDbEntity
  8
hatch
  6
Continuous
 48
10.0
100
AcDbLine
 10
768.1404441718573
 20
600.5888386849635
 30
0.0
 11
772.5834932585613
 21
613.5106128270592
 31
0.0
  0
LINE
  5
365
330
1F
100
AcDbEntity
  8
hatch
  6
Continuous
 48
10.0
100
AcDbLine
 10
761.010985795421
 20
599.3831388359698
 30
0.0
 11
765.4540348821249
 21
612.3049129780654
 31
0.0
  0
LINE
  5
366
330
1F
100
AcDbEntity
  8
hatch
  6
Continuous
 48
10.0
100
AcDbLine
 10
753.8815274189844
 20
598.1774389869758
 30
0.0
 11
758.3245765056883
 21
611.0992131290715
 31
0.0
  0
LINE
  5
367
330
1F
100
AcDbEntity
  8
hatch
  6
Continuous
 48
10.0
100
AcDbLine
 10
746.7520690425478
 20
596.971739137982
 30
0.0
 11
751.1951181292517
 21
609.8935132800777
 31
0.0
  0
LINE
  5
368
330
1F
100
AcDbEntity
  8
hatch
  6
Continuous
 48
10.0
100
AcDbLine
 10
739.6226106661113
 20
595.7660392889882
 30
0.0
 11
744.0656597528145
 21
608.687813431082
 31
0.0
  0
LINE
  5
369
330
1F
100
AcDbEntity
  8
hatch
  6
Continuous
 48
10.0
100
AcDbLine
 10
732.4931522896759
 20
594.560339439992
 30
0.0
 11
736.9362013763797
 21
607.4821135820878
 31
0.0
  0
LINE
  5
36A
330
1F
100
AcDbEntity
  8
hatch
  6
Continuous
 48
10.0
100
AcDbLine
 10
725.3636939132396
 20
593.3546395909981
 30
0.0
 11
729.8067429999434
 21
606.2764137330939
 31
0.0
  0
LINE
  5
36B
330
1F
100
AcDbEntity
  8
hatch
  6
Continuous
 48
10.0
100
AcDbLine
 10
718.234235536803
 20
592.1489397420044
 30
0.0
 11
722.6772846235069
 21
605.0707138841
 31
0.0
  0
LINE
  5
36C
330
1F
100
AcDbEntity
  8
hatch
  6
Continuous
 48
10.0
100
AcDbLine
 10
711.1047771603664
 20
590.9432398930105
 30
0.0
 11
715.5478262470703
 21
603.8650140351061
 31
0.0
  0
LINE
  5
36D
330
1F
100
AcDbEntity
  8
hatch
  6
Continuous
 48
10.0
100
AcDbLine
 10
703.9753187839298
 20
589.7375400440166
 30
0.0
 11
708.4183678706333
 21
602.6593141861106
 31
0.0
  0
LINE
  5
36E
330
1F
100
AcDbEntity
  8
hatch
  6
Continuous
 48
10.0
100
AcDbLine
 10
696.8458604074946
 20
588.5318401950205
 30
0.0
 11
701.2889094941983
 21
601.4536143371161
 31
0.0
  0
LINE
  5
36F
330
1F
100
AcDbEntity
  8
hatch
  6
Continuous
 48
10.0
100
AcDbLine
 10
689.7164020310581
 20
587.3261403460267
 30
0.0
 11
694.159451117762
 21
600.2479144881224
 31
0.0
  0
LINE
  5
370
330
1F
100
AcDbEntity
  8
hatch
  6
Continuous
 48
10.0
100
AcDbLine
 10
682.5869436546216
 20
586.1204404970329
 30
0.0
 11
687.0299927413254
 21
599.0422146391286
 31
0.0
  0
LINE
  5
371
330
1F
100
AcDbEntity
  8
hatch
  6
Continuous
 48
10.0
100
AcDbLine
 10
675.457485278185
 20
584.914740648039
 30
0.0
 11
679.9005343648889
 21
597.8365147901347
 31
0.0
  0
LINE
  5
372
330
1F
100
AcDbEntity
  8
hatch
  6
Continuous
 48
10.0
100
AcDbLine
 10
668.3280269017484
 20
583.7090407990451
 30
0.0
 11
672.7710759884523
 21
596.6308149411408
 31
0.0
  0
LINE
  5
373
330
1F
100
AcDbEntity
  8
hatch
  6
Continuous
 48
10.0
100
AcDbLine
 10
657.2267277593303
 20
570.9519877453353
 30
0.0
 11
665.6416176120169
 21
595.4251150921447
 31
0.0
  0
LINE
  5
374
330
1F
100
AcDbEntity
  8
hatch
  6
Continuous
 48
10.0
100
AcDbLine
 10
649.917726852314
 20
569.2241221530016
 30
0.0
 11
658.5121592355806
 21
594.2194152431508
 31
0.0
  0
LINE
  5
375
330
1F
100
AcDbEntity
  8
hatch
  6
Continuous
 48
10.0
100
AcDbLine
 10
644.2947687670259
 20
572.3997955743321
 30
0.0
 11
651.382700859144
 21
593.0137153941569
 31
0.0
  0
LINE
  5
376
330
1F
100
AcDbEntity
  8
hatch
  6
Continuous
 48
10.0
100
AcDbLine
 10
636.0760671264695
 20
568.0262361833682
 30
0.0
 11
644.2532424827074
 21
591.8080155451631
 31
0.0
  0
LINE
  5
377
330
1F
100
AcDbEntity
  8
hatch
  6
Continuous
 48
10.0
100
AcDbLine
 10
630.0824994482027
 20
570.1240611808093
 30
0.0
 11
637.1237841062709
 21
590.6023156961693
 31
0.0
  0
LINE
  5
378
330
1F
100
AcDbEntity
  8
hatch
  6
Continuous
 48
10.0
100
AcDbLine
 10
619.9974638869896
 20
560.3226199623291
 30
0.0
 11
629.9943257298357
 21
589.3966158471731
 31
0.0
  0
LINE
  5
379
330
1F
100
AcDbEntity
  8
hatch
  6
Continuous
 48
10.0
100
AcDbLine
 10
612.868005510553
 20
559.1169201133352
 30
0.0
 11
622.8648673533991
 21
588.1909159981793
 31
0.0
  0
LINE
  5
37A
330
1F
100
AcDbEntity
  8
hatch
  6
Continuous
 48
10.0
100
AcDbLine
 10
610.4347512365055
 20
571.5692482428862
 30
0.0
 11
614.7050223706291
 21
583.98853014679
 31
0.0
  0
INSERT
  5
37B
330
1F
100
AcDbEntity
  8
Medis
 48
10.0
100
AcDbBlockReference
  2
Taselis
 10
728.7553376940415
 20
510.9683606889531
 30
0.0
 50
14.99987788678017
  0
LINE
  5
37C
330
1F
100
AcDbEntity
  8
minu
100
AcDbLine
 10
712.7129053376059
 20
561.2552276575997
 30
0.0
 11
706.2424806764629
 21
585.4033871051534
 31
0.0
  0
LINE
  5
37D
330
1F
100
AcDbEntity
  8
minu
100
AcDbLine
 10
761.0092242327132
 20
574.1960769798857
 30
0.0
 11
754.5387995715702
 21
598.3442364274392
 31
0.0
  0
LINE
  5
37E
330
1F
100
AcDbEntity
  8
minu
100
AcDbLine
 10
754.5387995715702
 20
598.3442364274392
 30
0.0
 11
706.2424806764629
 21
585.4033871051534
 31
0.0
  0
LINE
  5
37F
330
1F
100
AcDbEntity
  8
minu
100
AcDbLine
 10
706.2424806764629
 20
585.4033871051534
 30
0.0
 11
761.0092242327132
 21
574.1960769798857
 31
0.0
  0
LINE
  5
380
330
1F
100
AcDbEntity
  8
minu
100
AcDbLine
 10
754.5387995715702
 20
598.3442364274392
 30
0.0
 11
712.7129053376059
 21
561.2552276575997
 31
0.0
  0
LINE
  5
381
330
1F
100
AcDbEntity
  8
minu
100
AcDbLine
 10
706.2424806764629
 20
585.4033871051534
 30
0.0
 11
682.0941806200201
 21
578.9328696064451
 31
0.0
  0
LINE
  5
384
330
1F
100
AcDbEntity
  8
minu
100
AcDbLine
 10
1262.75882086855
 20
475.702445932003
 30
0.0
 11
1262.75882086855
 21
449.8205414217509
 31
0.0
  0
LINE
  5
386
330
1F
100
AcDbEntity
  8
minu
100
AcDbLine
 10
788.8885552590045
 20
322.8473864345513
 30
0.0
 11
782.4180791314415
 21
346.995532091778
 31
0.0
  0
LINE
  5
387
330
1F
100
AcDbEntity
  8
minu
100
AcDbLine
 10
788.8885552590045
 20
322.8473864345513
 30
0.0
 11
885.4811378879112
 21
348.7292909448033
 31
0.0
  0
LINE
  5
388
330
1F
100
AcDbEntity
  8
minu
100
AcDbLine
 10
885.4811378879112
 20
348.7292909448034
 30
0.0
 11
879.0106617603488
 21
372.8774366020301
 31
0.0
  0
LINE
  5
389
330
1F
100
AcDbEntity
  8
minu
100
AcDbLine
 10
895.1403961508022
 20
351.3174813958286
 30
0.0
 11
888.6699200232387
 21
375.4656270530554
 31
0.0
  0
LINE
  5
38A
330
1F
100
AcDbEntity
  8
minu
100
AcDbLine
 10
991.7329787797088
 20
377.1993859060807
 30
0.0
 11
985.262502652146
 21
401.3475315633074
 31
0.0
  0
LINE
  5
38B
330
1F
100
AcDbEntity
  8
minu
100
AcDbLine
 10
1001.392237042599
 20
379.787576357106
 30
0.0
 11
994.9217609150364
 21
403.9357220143326
 31
0.0
  0
LINE
  5
38C
330
1F
100
AcDbEntity
  8
minu
100
AcDbLine
 10
1097.984819671506
 20
405.669480867358
 30
0.0
 11
1091.514343543943
 21
429.8176265245847
 31
0.0
  0
LINE
  5
38D
330
1F
100
AcDbEntity
  8
minu
100
AcDbLine
 10
1107.644077934397
 20
408.2576713183832
 30
0.0
 11
1101.173601806834
 21
432.4058169756098
 31
0.0
  0
LINE
  5
38E
330
1F
100
AcDbEntity
  8
minu
100
AcDbLine
 10
1204.236660563304
 20
434.1395758286354
 30
0.0
 11
1197.76618443574
 21
458.2877214858622
 31
0.0
  0
LINE
  5
38F
330
1F
100
AcDbEntity
  8
minu
100
AcDbLine
 10
1107.644077934397
 20
408.2576713183832
 30
0.0
 11
1252.75882086855
 21
447.1410494974395
 31
0.0
  0
LINE
  5
390
330
1F
100
AcDbEntity
  8
minu
100
AcDbLine
 10
1001.392237042599
 20
379.7875763571058
 30
0.0
 11
1097.984819671506
 21
405.669480867358
 31
0.0
  0
LINE
  5
391
330
1F
100
AcDbEntity
  8
minu
100
AcDbLine
 10
895.1403961508022
 20
351.3174813958286
 30
0.0
 11
991.7329787797088
 21
377.1993859060807
 31
0.0
  0
LINE
  5
392
330
1F
100
AcDbEntity
  8
minu
100
AcDbLine
 10
788.8885552590045
 20
322.8473864345513
 30
0.0
 11
879.0106617603488
 21
372.8774366020301
 31
0.0
  0
LINE
  5
393
330
1F
100
AcDbEntity
  8
minu
100
AcDbLine
 10
885.4811378879112
 20
348.7292909448034
 30
0.0
 11
782.4180791314415
 21
346.995532091778
 31
0.0
  0
LINE
  5
394
330
1F
100
AcDbEntity
  8
minu
100
AcDbLine
 10
895.1403961508022
 20
351.3174813958286
 30
0.0
 11
985.262502652146
 21
401.3475315633074
 31
0.0
  0
LINE
  5
395
330
1F
100
AcDbEntity
  8
minu
100
AcDbLine
 10
991.7329787797088
 20
377.1993859060807
 30
0.0
 11
888.6699200232387
 21
375.4656270530554
 31
0.0
  0
LINE
  5
396
330
1F
100
AcDbEntity
  8
minu
100
AcDbLine
 10
1001.392237042599
 20
379.787576357106
 30
0.0
 11
1091.514343543943
 21
429.8176265245847
 31
0.0
  0
LINE
  5
397
330
1F
100
AcDbEntity
  8
minu
100
AcDbLine
 10
1097.984819671506
 20
405.669480867358
 30
0.0
 11
994.9217609150364
 21
403.9357220143326
 31
0.0
  0
LINE
  5
398
330
1F
100
AcDbEntity
  8
minu
100
AcDbLine
 10
1107.644077934397
 20
408.2576713183832
 30
0.0
 11
1197.76618443574
 21
458.2877214858622
 31
0.0
  0
LINE
  5
399
330
1F
100
AcDbEntity
  8
minu
100
AcDbLine
 10
1204.236660563304
 20
434.1395758286354
 30
0.0
 11
1101.173601806834
 21
432.4058169756098
 31
0.0
  0
LINE
  5
39A
330
1F
100
AcDbEntity
  8
minu
100
AcDbLine
 10
1204.236660563304
 20
434.1395758286354
 30
0.0
 11
1252.75882086855
 21
473.0229540076916
 31
0.0
  0
LINE
  5
39B
330
1F
100
AcDbEntity
  8
minu
100
AcDbLine
 10
1252.75882086855
 20
447.1410494974395
 30
0.0
 11
1197.76618443574
 21
458.2877214858622
 31
0.0
  0
LINE
  5
39E
330
1F
100
AcDbEntity
  8
minu
100
AcDbLine
 10
732.124385186715
 20
488.8108044762466
 30
0.0
 11
707.9760851302719
 21
482.3402869775383
 31
0.0
  0
LINE
  5
39F
330
1F
100
AcDbEntity
  8
minu
100
AcDbLine
 10
758.0062896969669
 20
392.2182218473398
 30
0.0
 11
733.8579896405238
 21
385.7477043486314
 31
0.0
  0
LINE
  5
3A1
330
1F
100
AcDbEntity
  8
minu
100
AcDbLine
 10
707.9760851302719
 20
482.3402869775383
 30
0.0
 11
706.2424806764629
 21
585.4033871051534
 31
0.0
  0
LINE
  5
3A2
330
1F
100
AcDbEntity
  8
minu
100
AcDbLine
 10
732.124385186715
 20
488.8108044762466
 30
0.0
 11
682.0941806200201
 21
578.9328696064451
 31
0.0
  0
LINE
  5
3A3
330
1F
100
AcDbEntity
  8
minu
100
AcDbLine
 10
733.8579896405238
 20
385.7477043486314
 30
0.0
 11
732.124385186715
 21
488.8108044762466
 31
0.0
  0
LINE
  5
3A4
330
1F
100
AcDbEntity
  8
minu
100
AcDbLine
 10
758.0062896969669
 20
392.2182218473398
 30
0.0
 11
707.9760851302719
 21
482.3402869775383
 31
0.0
  0
LINE
  5
3A5
330
1F
100
AcDbEntity
  8
minu
100
AcDbLine
 10
777.5777500056245
 20
306.9929775745734
 30
0.0
 11
733.8579896405238
 21
385.7477043486314
 31
0.0
  0
LINE
  5
3A6
330
1F
100
AcDbEntity
  8
minu
100
AcDbLine
 10
758.0062896969669
 20
392.2182218473398
 30
0.0
 11
759.739894150776
 21
289.1551217197248
 31
0.0
  0
LWPOLYLINE
  5
3B1
330
1F
100
AcDbEntity
  8
STRICH
  6
Continuous
 48
100.0
100
AcDbPolyline
 90
        6
 70
     0
 43
0.0
 10
1967.233943488293
 20
1063.715182581896
 10
2027.668555203562
 20
857.7224738688846
 10
2047.960867503088
 20
862.3583702554746
 10
2013.378221084674
 20
838.9398662019342
 10
2033.017374758578
 20
839.4909042884094
 10
2100.392734694308
 20
609.8405019814631
  0
LWPOLYLINE
  5
3B2
330
1F
100
AcDbEntity
  8
STRICH
  6
Continuous
 48
100.0
100
AcDbPolyline
 90
        6
 70
     0
 43
0.0
 10
1871.094851971065
 20
1036.188835490705
 10
1931.712925832625
 20
829.5707920003495
 10
1952.00523813215
 20
834.2066883869406
 10
1917.422591713737
 20
810.7881843333998
 10
1937.061745387642
 20
811.3392224198749
 10
1996.177900551094
 20
609.840501981463
  0
LINE
  5
3B5
330
1F
100
AcDbEntity
  8
minu
100
AcDbLine
 10
3204.017616194816
 20
995.8611724394899
 30
0.0
 11
3204.017616194818
 21
1177.034504011254
 31
0.0
  0
LINE
  5
3B7
330
1F
100
AcDbEntity
  8
minu
100
AcDbLine
 10
4332.205527814532
 20
693.5641326104332
 30
0.0
 11
3204.017616194818
 21
995.8611724394904
 31
0.0
  0
LINE
  5
3B9
330
1F
100
AcDbEntity
  8
minu
100
AcDbLine
 10
4381.484664767863
 20
861.5331592318499
 30
0.0
 11
3204.017616194818
 21
1177.034504011255
 31
0.0
  0
INSERT
  5
3BA
330
1F
100
AcDbEntity
  8
minu
100
AcDbBlockReference
  2
kivi rooviga
 10
3242.912616194818
 20
1166.607876280293
 30
0.0
 41
-1.0
 50
18.81400000000007
  0
INSERT
  5
3BB
330
1F
100
AcDbEntity
  8
minu
100
AcDbBlockReference
  2
kivi rooviga
 10
3580.98684846057
 20
1076.021931024295
 30
0.0
 41
-1.0
 50
18.81400000000007
  0
INSERT
  5
3BC
330
1F
100
AcDbEntity
  8
minu
100
AcDbBlockReference
  2
kivi rooviga
 10
3919.061080726322
 20
985.435985768299
 30
0.0
 41
-1.0
 50
18.81400000000007
  0
LINE
  5
3C4
330
1F
100
AcDbEntity
  8
minu
370
    50
100
AcDbLine
 10
3179.028950314154
 20
1221.879271503887
 30
0.0
 11
3176.799190649342
 21
1221.312324270407
 31
0.0
  0
LINE
  5
3C5
330
1F
100
AcDbEntity
  8
minu
370
    50
100
AcDbLine
 10
3179.028950314154
 20
1266.879271503887
 30
0.0
 11
3179.028950314154
 21
1221.879271503887
 31
0.0
  0
LINE
  5
3C6
330
1F
100
AcDbEntity
  8
minu
370
    50
100
AcDbLine
 10
3229.023986519038
 20
1266.879271503887
 30
0.0
 11
3229.023986519038
 21
1221.879271503887
 31
0.0
  0
LINE
  5
3C7
330
1F
100
AcDbEntity
  8
minu
370
    50
100
AcDbLine
 10
3229.023986519038
 20
1221.879271503887
 30
0.0
 11
3231.236783610436
 21
1221.316637239298
 31
0.0
  0
LWPOLYLINE
  5
3C9
330
1F
100
AcDbEntity
  8
minu
100
AcDbPolyline
 90
        2
 70
     0
 43
0.0
 10
3179.028950314154
 20
1311.249232349116
 10
3229.023986519038
 20
1236.249232349116
  0
LWPOLYLINE
  5
3CA
330
1F
100
AcDbEntity
  8
minu
100
AcDbPolyline
 90
        2
 70
     0
 43
0.0
 10
3229.028950314154
 20
1311.249232349116
 10
3179.028950314154
 20
1236.249232349116
  0
LINE
  5
3CD
330
1F
100
AcDbEntity
  8
minu
100
AcDbLine
 10
3171.483921786924
 20
1252.21340517937
 30
0.0
 11
3168.76561630633
 21
1268.016665515836
 31
0.0
  0
LINE
  5
3CE
330
1F
100
AcDbEntity
  8
minu
100
AcDbLine
 10
3098.337225382767
 20
1255.902337398672
 30
0.0
 11
3168.76561630633
 21
1268.016665515836
 31
0.0
  0
LINE
  5
3CF
330
1F
100
AcDbEntity
  8
minu
100
AcDbLine
 10
3309.69800700687
 20
1255.902337398672
 30
0.0
 11
3239.269616083308
 21
1268.016665515838
 31
0.0
  0
LINE
  5
3D0
330
1F
100
AcDbEntity
  8
minu
100
AcDbLine
 10
3236.551310602713
 20
1252.21340517937
 30
0.0
 11
3239.269616083307
 21
1268.016665515838
 31
0.0
  0
LWPOLYLINE
  5
3E4
330
1F
100
AcDbEntity
  8
STRICH
  6
Continuous
 48
100.0
100
AcDbPolyline
 90
        6
 70
     0
 43
0.0
 10
4442.293229435597
 20
1068.800494841982
 10
4380.366677186073
 20
857.7224738688769
 10
4360.074364886546
 20
862.3583702554672
 10
4394.657011304961
 20
838.9398662019265
 10
4375.017857631056
 20
839.490904288402
 10
4307.642497695328
 20
609.8405019814634
  0
LINE
  5
3E8
330
1F
100
AcDbEntity
  8
minu
100
AcDbLine
 10
2075.829704575104
 20
693.5641326104327
 30
0.0
 11
3204.017616194818
 21
995.86117243949
 31
0.0
  0
LINE
  5
3EA
330
1F
100
AcDbEntity
  8
minu
100
AcDbLine
 10
2026.550567621774
 20
861.5331592318502
 30
0.0
 11
3204.017616194818
 21
1177.034504011254
 31
0.0
  0
LWPOLYLINE
  5
3F0
330
1F
100
AcDbEntity
  8
minu
100
AcDbPolyline
 90
        2
 70
     0
 43
0.0
 10
3229.023986519038
 20
1236.249232349116
 10
3179.028950314154
 20
1236.249232349116
  0
LINE
  5
3F9
330
1F
100
AcDbEntity
  8
minu
100
AcDbLine
 10
3179.028950314154
 20
1311.249232349116
 30
0.0
 11
3229.028950314154
 21
1311.249232349116
 31
0.0
  0
LINE
  5
3FA
330
1F
100
AcDbEntity
  8
minu
100
AcDbLine
 10
3229.028950314154
 20
1311.249232349116
 30
0.0
 11
3229.028950314154
 21
1261.249232349117
 31
0.0
  0
LINE
  5
3FC
330
1F
100
AcDbEntity
  8
minu
100
AcDbLine
 10
3179.028950314154
 20
1261.249232349117
 30
0.0
 11
3179.028950314154
 21
1311.249232349116
 31
0.0
  0
LINE
  5
3FD
330
1F
100
AcDbEntity
  8
minu
370
     5
100
AcDbLine
 10
732.1242307874548
 20
488.8107631052657
 30
0.0
 11
1936.401612519118
 21
811.4959150033319
 31
0.0
  0
LINE
  5
3FE
330
1F
100
AcDbEntity
  8
minu
370
     5
100
AcDbLine
 10
2033.021043749337
 20
837.3850135746236
 30
0.0
 11
3204.017616194818
 21
1151.152599501002
 31
0.0
  0
LINE
  5
3FF
330
1F
100
AcDbEntity
  8
minu
370
     5
100
AcDbLine
 10
4374.444788060247
 20
837.5375840002181
 30
0.0
 11
3204.017616194817
 21
1151.152599501003
 31
0.0
  0
INSERT
  5
400
330
1F
100
AcDbEntity
  8
Medis
 48
10.0
100
AcDbBlockReference
  2
Taselis
 10
2105.705183536605
 20
879.9186431164773
 30
0.0
 50
14.99987788677933
  0
LINE
  5
401
330
1F
100
AcDbEntity
  8
hatch
  6
Continuous
 48
10.0
100
AcDbLine
 10
2035.058795737917
 20
927.0015509060574
 30
0.0
 11
2039.46548952015
 21
939.935768395949
 31
0.0
  0
LINE
  5
402
330
1F
100
AcDbEntity
  8
hatch
  6
Continuous
 48
10.0
100
AcDbLine
 10
2027.932756139027
 20
925.7758068453911
 30
0.0
 11
2032.33944992126
 21
938.710024335281
 31
0.0
  0
LINE
  5
403
330
1F
100
AcDbEntity
  8
hatch
  6
Continuous
 48
10.0
100
AcDbLine
 10
2020.806716540137
 20
924.5500627847231
 30
0.0
 11
2025.21341032237
 21
937.4842802746147
 31
0.0
  0
LINE
  5
404
330
1F
100
AcDbEntity
  8
hatch
  6
Continuous
 48
10.0
100
AcDbLine
 10
2013.680676941248
 20
923.3243187240564
 30
0.0
 11
2018.087370723482
 21
936.258536213948
 31
0.0
  0
LINE
  5
405
330
1F
100
AcDbEntity
  8
hatch
  6
Continuous
 48
10.0
100
AcDbLine
 10
2007.751291079346
 20
925.6109085034879
 30
0.0
 11
2010.961331124592
 21
935.0327921532816
 31
0.0
  0
LWPOLYLINE
  5
40A
330
1F
100
AcDbEntity
  8
cherpes
  6
Continuous
100
AcDbPolyline
 90
        6
 70
   128
 43
0.0
 10
2008.674756961192
 20
922.4632546507278
 10
2140.168189134685
 20
945.0813290055844
 42
-0.3677254187910698
 10
2144.628322459158
 20
942.441551069751
 10
2147.361140334147
 20
934.5052580887807
 42
0.3677253557588628
 10
2151.821272783098
 20
931.8654800023496
 10
2165.222659848308
 20
934.1706382230498
  0
LWPOLYLINE
  5
40B
330
1F
100
AcDbEntity
  8
cherpes
  6
Continuous
100
AcDbPolyline
 90
        2
 70
   128
 43
0.0
 10
2005.274081198559
 20
934.054533090639
 10
2160.645629694991
 20
960.7798620932678
  0
LWPOLYLINE
  5
40C
330
1F
100
AcDbEntity
  8
cherpes
  6
Continuous
100
AcDbPolyline
 90
        2
 70
   128
 43
0.0
 10
1995.072050487181
 20
968.8283800793682
 10
2084.11452858551
 20
984.1445016306815
  0
LINE
  5
40D
330
1F
100
AcDbEntity
  8
hatch
  6
Continuous
 48
10.0
100
AcDbLine
 10
2150.746219208041
 20
931.8273348724266
 30
0.0
 11
2160.608162701274
 21
960.773417427282
 31
0.0
  0
HATCH
  5
40E
330
1F
100
AcDbEntity
  8
hatch
  6
Continuous
 48
10.0
100
AcDbHatch
 10
0.0
 20
0.0
 30
0.0
210
0.0
220
0.0
230
1.0
  2
ANSI31
 70
     0
 71
     0
 91
        1
 92
        7
 72
     0
 73
     1
 93
        3
 10
2165.222656533488
 20
934.1706407173331
 10
2162.752915331803
 20
948.5288368261127
 10
2157.402799637484
 20
932.8255537286153
 97
        0
 75
     0
 76
     1
 52
26.18599999999999
 41
2.0
 77
     0
 78
     1
 53
71.18599999999999
 43
-5364.194028230313
 44
15104.29842155576
 45
-6.010722595576448
 46
2.047855922428801
 79
     0
 47
0.4294323049079476
 98
        1
 10
2161.643173437938
 20
935.5659886269618
  0
LWPOLYLINE
  5
40F
330
1F
100
AcDbEntity
  8
cherpes
  6
Continuous
100
AcDbPolyline
 90
        3
 70
   128
 43
0.0
 10
2157.261224989668
 20
980.4555694113791
 10
2165.222656533487
 20
934.1706407173315
 10
2151.821275720896
 20
931.8654805076784
  0
LINE
  5
410
330
1F
100
AcDbEntity
  8
hatch
  6
Continuous
 48
10.0
100
AcDbLine
 10
2146.149238280503
 20
938.0247058536651
 30
0.0
 11
2153.482123102384
 21
959.5476733666158
 31
0.0
  0
LINE
  5
411
330
1F
100
AcDbEntity
  8
hatch
  6
Continuous
 48
10.0
100
AcDbLine
 10
2141.823438269369
 20
945.0180279776869
 30
0.0
 11
2146.356083503494
 21
958.3219293059496
 31
0.0
  0
LINE
  5
412
330
1F
100
AcDbEntity
  8
hatch
  6
Continuous
 48
10.0
100
AcDbLine
 10
2134.823350122371
 20
944.1619677553902
 30
0.0
 11
2139.230043904604
 21
957.0961852452818
 31
0.0
  0
LINE
  5
413
330
1F
100
AcDbEntity
  8
hatch
  6
Continuous
 48
10.0
100
AcDbLine
 10
2127.697310523481
 20
942.9362236947238
 30
0.0
 11
2132.104004305714
 21
955.8704411846154
 31
0.0
  0
LINE
  5
414
330
1F
100
AcDbEntity
  8
hatch
  6
Continuous
 48
10.0
100
AcDbLine
 10
2120.571270924592
 20
941.710479634057
 30
0.0
 11
2124.977964706826
 21
954.6446971239486
 31
0.0
  0
LINE
  5
415
330
1F
100
AcDbEntity
  8
hatch
  6
Continuous
 48
10.0
100
AcDbLine
 10
2113.445231325703
 20
940.4847355733908
 30
0.0
 11
2117.851925107936
 21
953.4189530632822
 31
0.0
  0
LINE
  5
416
330
1F
100
AcDbEntity
  8
hatch
  6
Continuous
 48
10.0
100
AcDbLine
 10
2106.319191726813
 20
939.2589915127244
 30
0.0
 11
2110.725885509046
 21
952.193209002616
 31
0.0
  0
LINE
  5
417
330
1F
100
AcDbEntity
  8
hatch
  6
Continuous
 48
10.0
100
AcDbLine
 10
2099.193152127923
 20
938.0332474520566
 30
0.0
 11
2103.599845910156
 21
950.9674649419482
 31
0.0
  0
LINE
  5
418
330
1F
100
AcDbEntity
  8
hatch
  6
Continuous
 48
10.0
100
AcDbLine
 10
2092.067112529032
 20
936.8075033913903
 30
0.0
 11
2096.473806311266
 21
949.7417208812819
 31
0.0
  0
LINE
  5
419
330
1F
100
AcDbEntity
  8
hatch
  6
Continuous
 48
10.0
100
AcDbLine
 10
2084.941072930145
 20
935.5817593307234
 30
0.0
 11
2089.347766712378
 21
948.515976820615
 31
0.0
  0
LINE
  5
41A
330
1F
100
AcDbEntity
  8
hatch
  6
Continuous
 48
10.0
100
AcDbLine
 10
2077.815033331255
 20
934.3560152700572
 30
0.0
 11
2082.221727113488
 21
947.2902327599488
 31
0.0
  0
LINE
  5
41B
330
1F
100
AcDbEntity
  8
hatch
  6
Continuous
 48
10.0
100
AcDbLine
 10
2070.688993732365
 20
933.130271209391
 30
0.0
 11
2075.095687514598
 21
946.0644886992824
 31
0.0
  0
LINE
  5
41C
330
1F
100
AcDbEntity
  8
hatch
  6
Continuous
 48
10.0
100
AcDbLine
 10
2063.562954133475
 20
931.904527148723
 30
0.0
 11
2067.969647915708
 21
944.8387446386146
 31
0.0
  0
LINE
  5
41D
330
1F
100
AcDbEntity
  8
hatch
  6
Continuous
 48
10.0
100
AcDbLine
 10
2056.436914534585
 20
930.6787830880567
 30
0.0
 11
2060.843608316818
 21
943.6130005779483
 31
0.0
  0
LINE
  5
41E
330
1F
100
AcDbEntity
  8
hatch
  6
Continuous
 48
10.0
100
AcDbLine
 10
2049.310874935696
 20
929.4530390273898
 30
0.0
 11
2053.71756871793
 21
942.3872565172814
 31
0.0
  0
LINE
  5
41F
330
1F
100
AcDbEntity
  8
hatch
  6
Continuous
 48
10.0
100
AcDbLine
 10
2042.184835336807
 20
928.2272949667236
 30
0.0
 11
2046.59152911904
 21
941.1615124566152
 31
0.0
  0
LINE
  5
441
330
1F
100
AcDbEntity
  8
hatch
  6
Continuous
 48
10.0
100
AcDbLine
 10
1910.709664608238
 20
893.6838461631145
 30
0.0
 11
1911.888327294675
 21
897.1433739376712
 31
0.0
  0
LINE
  5
442
330
1F
100
AcDbEntity
  8
hatch
  6
Continuous
 48
10.0
100
AcDbLine
 10
1903.583625009348
 20
892.4581021024483
 30
0.0
 11
1907.990318791581
 21
905.3923195923381
 31
0.0
  0
LINE
  5
443
330
1F
100
AcDbEntity
  8
hatch
  6
Continuous
 48
10.0
100
AcDbLine
 10
1896.457585410458
 20
891.2323580417803
 30
0.0
 11
1900.864279192691
 21
904.1665755316719
 31
0.0
  0
LINE
  5
444
330
1F
100
AcDbEntity
  8
hatch
  6
Continuous
 48
10.0
100
AcDbLine
 10
1889.331545811569
 20
890.0066139811135
 30
0.0
 11
1893.738239593803
 21
902.9408314710051
 31
0.0
  0
LINE
  5
445
330
1F
100
AcDbEntity
  8
hatch
  6
Continuous
 48
10.0
100
AcDbLine
 10
1882.20550621268
 20
888.7808699204471
 30
0.0
 11
1886.612199994913
 21
901.7150874103387
 31
0.0
  0
LINE
  5
446
330
1F
100
AcDbEntity
  8
hatch
  6
Continuous
 48
10.0
100
AcDbLine
 10
1875.07946661379
 20
887.5551258597809
 30
0.0
 11
1879.486160396023
 21
900.4893433496725
 31
0.0
  0
LINE
  5
447
330
1F
100
AcDbEntity
  8
hatch
  6
Continuous
 48
10.0
100
AcDbLine
 10
1867.9534270149
 20
886.3293817991147
 30
0.0
 11
1872.360120797133
 21
899.2635992890047
 31
0.0
  0
LINE
  5
448
330
1F
100
AcDbEntity
  8
hatch
  6
Continuous
 48
10.0
100
AcDbLine
 10
1860.82738741601
 20
885.1036377384467
 30
0.0
 11
1865.234081198243
 21
898.0378552283383
 31
0.0
  0
LINE
  5
449
330
1F
100
AcDbEntity
  8
hatch
  6
Continuous
 48
10.0
100
AcDbLine
 10
1853.701347817122
 20
883.8778936777799
 30
0.0
 11
1858.108041599355
 21
896.8121111676715
 31
0.0
  0
LWPOLYLINE
  5
44A
330
1F
100
AcDbEntity
  8
cherpes
  6
Continuous
100
AcDbPolyline
 90
        4
 70
   128
 43
0.0
 10
1671.77001664427
 20
841.8865723953004
 10
1679.416885739387
 20
852.7105936048695
 42
-0.1989122287127879
 10
1682.00577066297
 20
854.3446822748808
 10
1912.797909359635
 20
894.0430433813899
  0
LWPOLYLINE
  5
44B
330
1F
100
AcDbEntity
  8
cherpes
  6
Continuous
100
AcDbPolyline
 90
       14
 70
   128
 43
0.0
 10
1679.416885390491
 20
852.7105926984374
 10
1671.770019762687
 20
841.8865696264711
 42
-0.4142134924785241
 10
1663.407548304076
 20
840.4481489918405
 10
1660.701118417726
 20
842.3601640600615
 42
0.4142104095021589
 10
1655.126161738998
 20
841.4012513614501
 10
1654.368082257804
 20
840.3282252466581
 42
-0.4142088631848201
 10
1648.793142826947
 20
839.3693003630582
 10
1647.699083481299
 20
840.1422132437826
 42
0.5973386449645318
 10
1641.393132453292
 20
837.0032372555966
 42
-0.3561150479151772
 10
1636.413323094804
 20
831.2820777330779
 10
1626.952265200348
 20
829.6546891449551
 10
1624.918030088623
 20
841.4810078886548
 42
-0.4142135623730951
 10
1637.158137709127
 20
858.8067045683988
 10
1909.397233597001
 20
905.6343218213013
  0
LWPOLYLINE
  5
44C
330
1F
100
AcDbEntity
  8
cherpes
  6
Continuous
100
AcDbPolyline
 90
        4
 70
   128
 43
0.0
 10
1624.918030088623
 20
841.4810078886548
 10
1618.815322705554
 20
876.9599760253496
 42
-0.4142135623730951
 10
1631.055430326061
 20
894.2856727050966
 10
1899.195202885624
 20
940.4081688100301
  0
LINE
  5
460
330
1F
100
AcDbEntity
  8
hatch
  6
Continuous
 48
10.0
100
AcDbLine
 10
1846.575308218232
 20
882.6521496171137
 30
0.0
 11
1850.982002000465
 21
895.5863671070053
 31
0.0
  0
LINE
  5
461
330
1F
100
AcDbEntity
  8
hatch
  6
Continuous
 48
10.0
100
AcDbLine
 10
1839.449268619342
 20
881.4264055564475
 30
0.0
 11
1843.855962401575
 21
894.3606230463389
 31
0.0
  0
LINE
  5
462
330
1F
100
AcDbEntity
  8
hatch
  6
Continuous
 48
10.0
100
AcDbLine
 10
1832.323229020452
 20
880.2006614957813
 30
0.0
 11
1836.729922802685
 21
893.1348789856727
 31
0.0
  0
LINE
  5
463
330
1F
100
AcDbEntity
  8
hatch
  6
Continuous
 48
10.0
100
AcDbLine
 10
1825.197189421562
 20
878.9749174351133
 30
0.0
 11
1829.603883203795
 21
891.9091349250049
 31
0.0
  0
LINE
  5
464
330
1F
100
AcDbEntity
  8
hatch
  6
Continuous
 48
10.0
100
AcDbLine
 10
1818.071149822674
 20
877.7491733744463
 30
0.0
 11
1822.477843604907
 21
890.6833908643379
 31
0.0
  0
LINE
  5
465
330
1F
100
AcDbEntity
  8
hatch
  6
Continuous
 48
10.0
100
AcDbLine
 10
1810.945110223784
 20
876.5234293137801
 30
0.0
 11
1815.351804006017
 21
889.4576468036717
 31
0.0
  0
LINE
  5
466
330
1F
100
AcDbEntity
  8
hatch
  6
Continuous
 48
10.0
100
AcDbLine
 10
1803.819070624894
 20
875.2976852531139
 30
0.0
 11
1808.225764407128
 21
888.2319027430055
 31
0.0
  0
LINE
  5
467
330
1F
100
AcDbEntity
  8
hatch
  6
Continuous
 48
10.0
100
AcDbLine
 10
1796.693031026004
 20
874.0719411924477
 30
0.0
 11
1801.099724808238
 21
887.0061586823393
 31
0.0
  0
LINE
  5
468
330
1F
100
AcDbEntity
  8
hatch
  6
Continuous
 48
10.0
100
AcDbLine
 10
1789.566991427114
 20
872.8461971317797
 30
0.0
 11
1793.973685209347
 21
885.7804146216713
 31
0.0
  0
LINE
  5
469
330
1F
100
AcDbEntity
  8
hatch
  6
Continuous
 48
10.0
100
AcDbLine
 10
1782.440951828226
 20
871.6204530711129
 30
0.0
 11
1786.847645610459
 21
884.5546705610043
 31
0.0
  0
LINE
  5
46A
330
1F
100
AcDbEntity
  8
hatch
  6
Continuous
 48
10.0
100
AcDbLine
 10
1775.314912229336
 20
870.3947090104465
 30
0.0
 11
1779.721606011569
 21
883.3289265003381
 31
0.0
  0
LINE
  5
46B
330
1F
100
AcDbEntity
  8
hatch
  6
Continuous
 48
10.0
100
AcDbLine
 10
1768.188872630446
 20
869.1689649497803
 30
0.0
 11
1772.595566412679
 21
882.1031824396719
 31
0.0
  0
LINE
  5
46C
330
1F
100
AcDbEntity
  8
hatch
  6
Continuous
 48
10.0
100
AcDbLine
 10
1761.062833031556
 20
867.9432208891141
 30
0.0
 11
1765.46952681379
 21
880.8774383790057
 31
0.0
  0
LINE
  5
46D
330
1F
100
AcDbEntity
  8
hatch
  6
Continuous
 48
10.0
100
AcDbLine
 10
1753.936793432666
 20
866.7174768284478
 30
0.0
 11
1758.343487214899
 21
879.6516943183377
 31
0.0
  0
LINE
  5
46E
330
1F
100
AcDbEntity
  8
hatch
  6
Continuous
 48
10.0
100
AcDbLine
 10
1746.810753833778
 20
865.4917327677793
 30
0.0
 11
1751.217447616011
 21
878.4259502576709
 31
0.0
  0
LINE
  5
46F
330
1F
100
AcDbEntity
  8
hatch
  6
Continuous
 48
10.0
100
AcDbLine
 10
1739.684714234888
 20
864.2659887071131
 30
0.0
 11
1744.091408017121
 21
877.2002061970045
 31
0.0
  0
LINE
  5
470
330
1F
100
AcDbEntity
  8
hatch
  6
Continuous
 48
10.0
100
AcDbLine
 10
1732.558674635998
 20
863.0402446464469
 30
0.0
 11
1736.965368418231
 21
875.9744621363383
 31
0.0
  0
LINE
  5
471
330
1F
100
AcDbEntity
  8
hatch
  6
Continuous
 48
10.0
100
AcDbLine
 10
1725.432635037108
 20
861.8145005857806
 30
0.0
 11
1729.839328819342
 21
874.7487180756721
 31
0.0
  0
LINE
  5
472
330
1F
100
AcDbEntity
  8
hatch
  6
Continuous
 48
10.0
100
AcDbLine
 10
1718.306595438218
 20
860.5887565251144
 30
0.0
 11
1722.713289220451
 21
873.5229740150041
 31
0.0
  0
LINE
  5
473
330
1F
100
AcDbEntity
  8
hatch
  6
Continuous
 48
10.0
100
AcDbLine
 10
1711.180555839329
 20
859.3630124644457
 30
0.0
 11
1715.587249621563
 21
872.2972299543373
 31
0.0
  0
LINE
  5
474
330
1F
100
AcDbEntity
  8
hatch
  6
Continuous
 48
10.0
100
AcDbLine
 10
1704.05451624044
 20
858.1372684037795
 30
0.0
 11
1708.461210022673
 21
871.0714858936711
 31
0.0
  0
LINE
  5
475
330
1F
100
AcDbEntity
  8
hatch
  6
Continuous
 48
10.0
100
AcDbLine
 10
1696.92847664155
 20
856.9115243431133
 30
0.0
 11
1701.335170423783
 21
869.8457418330049
 31
0.0
  0
LINE
  5
476
330
1F
100
AcDbEntity
  8
hatch
  6
Continuous
 48
10.0
100
AcDbLine
 10
1689.80243704266
 20
855.685780282447
 30
0.0
 11
1694.209130824894
 21
868.6199977723386
 31
0.0
  0
LINE
  5
477
330
1F
100
AcDbEntity
  8
hatch
  6
Continuous
 48
10.0
100
AcDbLine
 10
1682.67639744377
 20
854.4600362217808
 30
0.0
 11
1687.083091226004
 21
867.3942537116724
 31
0.0
  0
LINE
  5
478
330
1F
100
AcDbEntity
  8
hatch
  6
Continuous
 48
10.0
100
AcDbLine
 10
1671.611016715418
 20
841.6718152899532
 30
0.0
 11
1679.957051627115
 21
866.1685096510037
 31
0.0
  0
LINE
  5
479
330
1F
100
AcDbEntity
  8
hatch
  6
Continuous
 48
10.0
100
AcDbLine
 10
1664.30690369494
 20
839.9234026532957
 30
0.0
 11
1672.831012028225
 21
864.9427655903375
 31
0.0
  0
LINE
  5
47A
330
1F
100
AcDbEntity
  8
hatch
  6
Continuous
 48
10.0
100
AcDbLine
 10
1658.67503742981
 20
843.0832510166727
 30
0.0
 11
1665.704972429335
 21
863.7170215296713
 31
0.0
  0
LINE
  5
47B
330
1F
100
AcDbEntity
  8
hatch
  6
Continuous
 48
10.0
100
AcDbLine
 10
1650.468667313371
 20
838.6865968439197
 30
0.0
 11
1658.578932830445
 21
862.491277469005
 31
0.0
  0
LINE
  5
47C
330
1F
100
AcDbEntity
  8
hatch
  6
Continuous
 48
10.0
100
AcDbLine
 10
1644.46922397287
 20
840.7675588421261
 30
0.0
 11
1651.452893231556
 21
861.2655334083388
 31
0.0
  0
LINE
  5
47D
330
1F
100
AcDbEntity
  8
hatch
  6
Continuous
 48
10.0
100
AcDbLine
 10
1634.411791236317
 20
830.9377959263706
 30
0.0
 11
1644.326853632667
 21
860.0397893476701
 31
0.0
  0
LINE
  5
47E
330
1F
100
AcDbEntity
  8
hatch
  6
Continuous
 48
10.0
100
AcDbLine
 10
1627.285751637427
 20
829.7120518657044
 30
0.0
 11
1637.200814033777
 21
858.8140452870039
 31
0.0
  0
LINE
  5
47F
330
1F
100
AcDbEntity
  8
hatch
  6
Continuous
 48
10.0
100
AcDbLine
 10
1624.817489392388
 20
842.1574881255507
 30
0.0
 11
1629.052818979789
 21
854.5887294896962
 31
0.0
  0
LINE
  5
480
330
1F
100
AcDbEntity
  8
minu
100
AcDbLine
 10
759.7398941507758
 20
289.1551217197246
 30
0.0
 11
780.1523086739693
 21
309.5675362429181
 31
0.0
  0
INSERT
  5
481
330
1F
100
AcDbEntity
  8
Medis
 48
10.0
100
AcDbBlockReference
  2
Taselis
 10
-4302.330048853032
 20
879.9186431164775
 30
0.0
 43
-1.0
 50
14.99987788677949
210
0.0
220
0.0
230
-1.0
  0
LINE
  5
482
330
1F
100
AcDbEntity
  8
hatch
  6
Continuous
 48
10.0
100
AcDbLine
 10
4372.97643665172
 20
927.0015509060575
 30
0.0
 11
4368.569742869486
 21
939.9357683959491
 31
0.0
  0
LINE
  5
483
330
1F
100
AcDbEntity
  8
hatch
  6
Continuous
 48
10.0
100
AcDbLine
 10
4380.102476250609
 20
925.7758068453913
 30
0.0
 11
4375.695782468376
 21
938.7100243352811
 31
0.0
  0
LINE
  5
484
330
1F
100
AcDbEntity
  8
hatch
  6
Continuous
 48
10.0
100
AcDbLine
 10
4387.2285158495
 20
924.5500627847233
 30
0.0
 11
4382.821822067267
 21
937.4842802746149
 31
0.0
  0
LINE
  5
485
330
1F
100
AcDbEntity
  8
hatch
  6
Continuous
 48
10.0
100
AcDbLine
 10
4394.354555448388
 20
923.3243187240566
 30
0.0
 11
4389.947861666154
 21
936.2585362139482
 31
0.0
  0
LINE
  5
486
330
1F
100
AcDbEntity
  8
hatch
  6
Continuous
 48
10.0
100
AcDbLine
 10
4400.28394131029
 20
925.6109085034866
 30
0.0
 11
4397.073901265044
 21
935.0327921532819
 31
0.0
  0
LWPOLYLINE
  5
48B
330
1F
100
AcDbEntity
  8
cherpes
  6
Continuous
100
AcDbPolyline
 90
        6
 70
     0
 43
0.0
 10
4399.360475428445
 20
922.4632546507276
 10
4267.867043254951
 20
945.0813290055844
 42
0.3677254187910698
 10
4263.406909930478
 20
942.441551069751
 10
4260.674092055489
 20
934.5052580887807
 42
-0.3677253557588628
 10
4256.213959606539
 20
931.8654800023496
 10
4242.812572541327
 20
934.1706382230498
  0
LWPOLYLINE
  5
48C
330
1F
100
AcDbEntity
  8
cherpes
  6
Continuous
100
AcDbPolyline
 90
        2
 70
     0
 43
0.0
 10
4402.761151191079
 20
934.054533090639
 10
4247.389602694647
 20
960.7798620932678
  0
LWPOLYLINE
  5
48D
330
1F
100
AcDbEntity
  8
cherpes
  6
Continuous
100
AcDbPolyline
 90
        2
 70
     0
 43
0.0
 10
4412.963181902456
 20
968.8283800793682
 10
4323.920703804126
 20
984.1445016306817
  0
LINE
  5
48E
330
1F
100
AcDbEntity
  8
hatch
  6
Continuous
 48
10.0
100
AcDbLine
 10
4257.289013181596
 20
931.8273348724266
 30
0.0
 11
4247.427069688363
 21
960.773417427282
 31
0.0
  0
HATCH
  5
48F
330
1F
100
AcDbEntity
  8
hatch
  6
Continuous
 48
10.0
100
AcDbHatch
 10
0.0
 20
0.0
 30
0.0
210
0.0
220
0.0
230
1.0
  2
ANSI31
 70
     0
 71
     0
 91
        1
 92
        5
 93
        3
 72
     1
 10
4242.812575856149
 20
934.1706407173331
 11
4245.282317057834
 21
948.5288368261127
 72
     1
 10
4245.282317057834
 20
948.5288368261127
 11
4250.632432752152
 21
932.8255537286153
 72
     1
 10
4250.632432752152
 20
932.8255537286153
 11
4242.812575856149
 21
934.1706407173331
 97
        0
 75
     0
 76
     1
 52
45.0
 41
2.0
 77
     0
 78
     1
 53
108.814
 43
11772.22926061993
 44
15104.29842155577
 45
6.010722595576446
 46
2.047855922428808
 79
     0
 47
0.4294323049079476
 98
        1
 10
-2.961523728095357
 20
42.00518200721956
  0
LWPOLYLINE
  5
490
330
1F
100
AcDbEntity
  8
cherpes
  6
Continuous
100
AcDbPolyline
 90
        3
 70
     0
 43
0.0
 10
4250.774007399968
 20
980.4555694113791
 10
4242.81257585615
 20
934.1706407173315
 10
4256.213956668741
 20
931.8654805076784
  0
LINE
  5
491
330
1F
100
AcDbEntity
  8
hatch
  6
Continuous
 48
10.0
100
AcDbLine
 10
4261.885994109134
 20
938.0247058536651
 30
0.0
 11
4254.553109287252
 21
959.5476733666158
 31
0.0
  0
LINE
  5
492
330
1F
100
AcDbEntity
  8
hatch
  6
Continuous
 48
10.0
100
AcDbLine
 10
4266.211794120269
 20
945.0180279776869
 30
0.0
 11
4261.679148886143
 21
958.3219293059496
 31
0.0
  0
LINE
  5
493
330
1F
100
AcDbEntity
  8
hatch
  6
Continuous
 48
10.0
100
AcDbLine
 10
4273.211882267267
 20
944.1619677553902
 30
0.0
 11
4268.805188485033
 21
957.0961852452818
 31
0.0
  0
LINE
  5
494
330
1F
100
AcDbEntity
  8
hatch
  6
Continuous
 48
10.0
100
AcDbLine
 10
4280.337921866157
 20
942.9362236947239
 30
0.0
 11
4275.931228083923
 21
955.8704411846154
 31
0.0
  0
LINE
  5
495
330
1F
100
AcDbEntity
  8
hatch
  6
Continuous
 48
10.0
100
AcDbLine
 10
4287.463961465044
 20
941.710479634057
 30
0.0
 11
4283.05726768281
 21
954.6446971239486
 31
0.0
  0
LINE
  5
496
330
1F
100
AcDbEntity
  8
hatch
  6
Continuous
 48
10.0
100
AcDbLine
 10
4294.590001063934
 20
940.4847355733908
 30
0.0
 11
4290.1833072817
 21
953.4189530632824
 31
0.0
  0
LINE
  5
497
330
1F
100
AcDbEntity
  8
hatch
  6
Continuous
 48
10.0
100
AcDbLine
 10
4301.716040662824
 20
939.2589915127246
 30
0.0
 11
4297.309346880591
 21
952.1932090026162
 31
0.0
  0
LINE
  5
498
330
1F
100
AcDbEntity
  8
hatch
  6
Continuous
 48
10.0
100
AcDbLine
 10
4308.842080261714
 20
938.0332474520567
 30
0.0
 11
4304.435386479481
 21
950.9674649419482
 31
0.0
  0
LINE
  5
499
330
1F
100
AcDbEntity
  8
hatch
  6
Continuous
 48
10.0
100
AcDbLine
 10
4315.968119860604
 20
936.8075033913903
 30
0.0
 11
4311.561426078371
 21
949.7417208812819
 31
0.0
  0
LINE
  5
49A
330
1F
100
AcDbEntity
  8
hatch
  6
Continuous
 48
10.0
100
AcDbLine
 10
4323.094159459492
 20
935.5817593307236
 30
0.0
 11
4318.687465677259
 21
948.5159768206152
 31
0.0
  0
LINE
  5
49B
330
1F
100
AcDbEntity
  8
hatch
  6
Continuous
 48
10.0
100
AcDbLine
 10
4330.220199058382
 20
934.3560152700574
 30
0.0
 11
4325.813505276149
 21
947.2902327599488
 31
0.0
  0
LINE
  5
49C
330
1F
100
AcDbEntity
  8
hatch
  6
Continuous
 48
10.0
100
AcDbLine
 10
4337.346238657271
 20
933.1302712093911
 30
0.0
 11
4332.939544875038
 21
946.0644886992826
 31
0.0
  0
LINE
  5
49D
330
1F
100
AcDbEntity
  8
hatch
  6
Continuous
 48
10.0
100
AcDbLine
 10
4344.472278256161
 20
931.9045271487231
 30
0.0
 11
4340.065584473929
 21
944.8387446386147
 31
0.0
  0
LINE
  5
49E
330
1F
100
AcDbEntity
  8
hatch
  6
Continuous
 48
10.0
100
AcDbLine
 10
4351.598317855052
 20
930.6787830880569
 30
0.0
 11
4347.191624072819
 21
943.6130005779485
 31
0.0
  0
LINE
  5
49F
330
1F
100
AcDbEntity
  8
hatch
  6
Continuous
 48
10.0
100
AcDbLine
 10
4358.72435745394
 20
929.4530390273902
 30
0.0
 11
4354.317663671706
 21
942.3872565172816
 31
0.0
  0
LINE
  5
4A0
330
1F
100
AcDbEntity
  8
hatch
  6
Continuous
 48
10.0
100
AcDbLine
 10
4365.85039705283
 20
928.2272949667238
 30
0.0
 11
4361.443703270596
 21
941.1615124566154
 31
0.0
  0
LINE
  5
4C1
102
{ACAD_REACTORS
330
5C1
102
}
330
1F
100
AcDbEntity
  8
minu
100
AcDbLine
 10
1262.75882086855
 20
475.7024459320028
 30
0.0
 11
1262.75882086855
 21
-195.1883772849728
 31
0.0
  0
LINE
  5
4C2
330
1F
100
AcDbEntity
  8
minu
100
AcDbLine
 10
1252.75882086855
 20
473.0229540076916
 30
0.0
 11
1252.75882086855
 21
447.1410494974394
 31
0.0
  0
LINE
  5
4C3
102
{ACAD_REACTORS
330
5C1
102
}
330
1F
100
AcDbEntity
  8
minu
100
AcDbLine
 10
1272.75882086855
 20
-195.1883772849728
 30
0.0
 11
1262.75882086855
 21
-195.1883772849728
 31
0.0
  0
LINE
  5
4C8
330
1F
100
AcDbEntity
  8
minu
100
AcDbLine
 10
732.124385186715
 20
1402.425552718854
 30
0.0
 11
682.0941806200201
 21
1492.547617849053
 31
0.0
  0
LINE
  5
4C9
330
1F
100
AcDbEntity
  8
minu
100
AcDbLine
 10
707.9760851302719
 20
1395.955035220146
 30
0.0
 11
706.2424806764629
 21
1499.018135347761
 31
0.0
  0
LINE
  5
4CA
330
1F
100
AcDbEntity
  8
minu
100
AcDbLine
 10
706.2424806764629
 20
1499.018135347761
 30
0.0
 11
682.0941806200201
 21
1492.547617849053
 31
0.0
  0
LINE
  5
4CB
330
1F
100
AcDbEntity
  8
minu
100
AcDbLine
 10
754.5387995715702
 20
1511.958984670047
 30
0.0
 11
712.7129053376059
 21
1474.869975900207
 31
0.0
  0
LINE
  5
4CC
330
1F
100
AcDbEntity
  8
minu
100
AcDbLine
 10
706.2424806764629
 20
1499.018135347761
 30
0.0
 11
761.0092242327132
 21
1487.810825222493
 31
0.0
  0
LINE
  5
4CD
330
1F
100
AcDbEntity
  8
minu
100
AcDbLine
 10
754.5387995715702
 20
1511.958984670047
 30
0.0
 11
706.2424806764629
 21
1499.018135347761
 31
0.0
  0
LINE
  5
4CE
330
1F
100
AcDbEntity
  8
minu
100
AcDbLine
 10
761.0092242327132
 20
1487.810825222493
 30
0.0
 11
754.5387995715702
 21
1511.958984670047
 31
0.0
  0
LINE
  5
4CF
330
1F
100
AcDbEntity
  8
minu
100
AcDbLine
 10
712.7129053376059
 20
1474.869975900207
 30
0.0
 11
706.2424806764629
 21
1499.018135347761
 31
0.0
  0
INSERT
  5
4D0
330
1F
100
AcDbEntity
  8
Medis
 48
10.0
100
AcDbBlockReference
  2
Taselis
 10
728.7553376940415
 20
1424.583108931561
 30
0.0
 50
14.99987788678017
  0
LINE
  5
4D1
330
1F
100
AcDbEntity
  8
hatch
  6
Continuous
 48
10.0
100
AcDbLine
 10
604.4334927625923
 20
1520.801749016921
 30
0.0
 11
608.703763896716
 21
1533.221030920825
 31
0.0
  0
LINE
  5
4D2
330
1F
100
AcDbEntity
  8
hatch
  6
Continuous
 48
10.0
100
AcDbLine
 10
606.8667470366399
 20
1508.34942088737
 30
0.0
 11
616.863608879486
 21
1537.423416772214
 31
0.0
  0
LINE
  5
4D3
330
1F
100
AcDbEntity
  8
hatch
  6
Continuous
 48
10.0
100
AcDbLine
 10
613.9962054130765
 20
1509.555120736364
 30
0.0
 11
623.9930672559226
 21
1538.629116621208
 31
0.0
  0
LINE
  5
4D4
330
1F
100
AcDbEntity
  8
hatch
  6
Continuous
 48
10.0
100
AcDbLine
 10
624.0812409742895
 20
1519.356561954844
 30
0.0
 11
631.1225256323577
 21
1539.834816470204
 31
0.0
  0
LINE
  5
4D5
330
1F
100
AcDbEntity
  8
hatch
  6
Continuous
 48
10.0
100
AcDbLine
 10
630.0748086525564
 20
1517.258736957403
 30
0.0
 11
638.2519840087943
 21
1541.040516319198
 31
0.0
  0
LINE
  5
4D6
330
1F
100
AcDbEntity
  8
hatch
  6
Continuous
 48
10.0
100
AcDbLine
 10
638.2935102931128
 20
1521.632296348367
 30
0.0
 11
645.3814423852309
 21
1542.246216168192
 31
0.0
  0
LINE
  5
4D7
330
1F
100
AcDbEntity
  8
hatch
  6
Continuous
 48
10.0
100
AcDbLine
 10
643.9164683784008
 20
1518.456622927036
 30
0.0
 11
652.5109007616674
 21
1543.451916017186
 31
0.0
  0
LINE
  5
4D8
330
1F
100
AcDbEntity
  8
hatch
  6
Continuous
 48
10.0
100
AcDbLine
 10
651.2254692854171
 20
1520.18448851937
 30
0.0
 11
659.6403591381037
 21
1544.65761586618
 31
0.0
  0
LINE
  5
4D9
330
1F
100
AcDbEntity
  8
hatch
  6
Continuous
 48
10.0
100
AcDbLine
 10
662.3267684278353
 20
1532.94154157308
 30
0.0
 11
666.7698175145392
 21
1545.863315715176
 31
0.0
  0
LINE
  5
4DA
330
1F
100
AcDbEntity
  8
hatch
  6
Continuous
 48
10.0
100
AcDbLine
 10
669.4562268042719
 20
1534.147241422074
 30
0.0
 11
673.8992758909757
 21
1547.06901556417
 31
0.0
  0
LINE
  5
4DB
330
1F
100
AcDbEntity
  8
hatch
  6
Continuous
 48
10.0
100
AcDbLine
 10
676.5856851807084
 20
1535.352941271068
 30
0.0
 11
681.0287342674123
 21
1548.274715413163
 31
0.0
  0
LINE
  5
4DC
330
1F
100
AcDbEntity
  8
hatch
  6
Continuous
 48
10.0
100
AcDbLine
 10
683.7151435571449
 20
1536.558641120062
 30
0.0
 11
688.1581926438489
 21
1549.480415262157
 31
0.0
  0
LINE
  5
4DD
330
1F
100
AcDbEntity
  8
hatch
  6
Continuous
 48
10.0
100
AcDbLine
 10
690.8446019335815
 20
1537.764340969055
 30
0.0
 11
695.2876510202852
 21
1550.686115111151
 31
0.0
  0
LINE
  5
4DE
330
1F
100
AcDbEntity
  8
hatch
  6
Continuous
 48
10.0
100
AcDbLine
 10
697.9740603100167
 20
1538.970040818051
 30
0.0
 11
702.4171093967201
 21
1551.891814960145
 31
0.0
  0
LINE
  5
4DF
330
1F
100
AcDbEntity
  8
hatch
  6
Continuous
 48
10.0
100
AcDbLine
 10
705.1035186864533
 20
1540.175740667045
 30
0.0
 11
709.5465677731572
 21
1553.097514809141
 31
0.0
  0
LINE
  5
4E0
330
1F
100
AcDbEntity
  8
hatch
  6
Continuous
 48
10.0
100
AcDbLine
 10
712.2329770628899
 20
1541.381440516039
 30
0.0
 11
716.6760261495937
 21
1554.303214658135
 31
0.0
  0
LINE
  5
4E1
330
1F
100
AcDbEntity
  8
hatch
  6
Continuous
 48
10.0
100
AcDbLine
 10
719.3624354393264
 20
1542.587140365033
 30
0.0
 11
723.8054845260303
 21
1555.508914507129
 31
0.0
  0
LINE
  5
4E2
330
1F
100
AcDbEntity
  8
hatch
  6
Continuous
 48
10.0
100
AcDbLine
 10
726.4918938157627
 20
1543.792840214027
 30
0.0
 11
730.9349429024666
 21
1556.714614356123
 31
0.0
  0
LINE
  5
4E3
330
1F
100
AcDbEntity
  8
hatch
  6
Continuous
 48
10.0
100
AcDbLine
 10
733.6213521921981
 20
1544.998540063023
 30
0.0
 11
738.0644012789014
 21
1557.920314205117
 31
0.0
  0
LINE
  5
4E4
330
1F
100
AcDbEntity
  8
hatch
  6
Continuous
 48
10.0
100
AcDbLine
 10
740.7508105686347
 20
1546.204239912017
 30
0.0
 11
745.1938596553386
 21
1559.126014054113
 31
0.0
  0
LINE
  5
4E5
330
1F
100
AcDbEntity
  8
hatch
  6
Continuous
 48
10.0
100
AcDbLine
 10
747.8802689450713
 20
1547.409939761011
 30
0.0
 11
752.3233180317752
 21
1560.331713903106
 31
0.0
  0
LINE
  5
4E6
330
1F
100
AcDbEntity
  8
hatch
  6
Continuous
 48
10.0
100
AcDbLine
 10
755.0097273215079
 20
1548.615639610004
 30
0.0
 11
759.4527764082117
 21
1561.5374137521
 31
0.0
  0
LINE
  5
4E7
330
1F
100
AcDbEntity
  8
hatch
  6
Continuous
 48
10.0
100
AcDbLine
 10
762.1391856979442
 20
1549.821339458999
 30
0.0
 11
766.582234784648
 21
1562.743113601094
 31
0.0
  0
LINE
  5
4E8
330
1F
100
AcDbEntity
  8
hatch
  6
Continuous
 48
10.0
100
AcDbLine
 10
769.2686440743791
 20
1551.027039307993
 30
0.0
 11
773.7116931610828
 21
1563.948813450088
 31
0.0
  0
LINE
  5
4E9
330
1F
100
AcDbEntity
  8
hatch
  6
Continuous
 48
10.0
100
AcDbLine
 10
776.3981024508161
 20
1552.232739156989
 30
0.0
 11
780.84115153752
 21
1565.154513299084
 31
0.0
  0
LINE
  5
4EA
330
1F
100
AcDbEntity
  8
hatch
  6
Continuous
 48
10.0
100
AcDbLine
 10
783.5275608272527
 20
1553.438439005982
 30
0.0
 11
787.9706099139566
 21
1566.360213148078
 31
0.0
  0
LINE
  5
4EB
330
1F
100
AcDbEntity
  8
hatch
  6
Continuous
 48
10.0
100
AcDbLine
 10
790.657019203689
 20
1554.644138854976
 30
0.0
 11
795.100068290393
 21
1567.565912997072
 31
0.0
  0
LWPOLYLINE
  5
4EC
330
1F
100
AcDbEntity
  8
cherpes
  6
Continuous
100
AcDbPolyline
 90
        4
 70
   128
 43
0.0
 10
610.5333891833782
 20
1484.507236189712
 10
604.530477477471
 20
1520.003225660342
 42
-0.4142135623730951
 10
616.819258848518
 20
1537.294433033304
 10
945.6869273549649
 20
1592.910957784727
  0
LWPOLYLINE
  5
4ED
330
1F
100
AcDbEntity
  8
cherpes
  6
Continuous
100
AcDbPolyline
 90
       14
 70
   128
 43
0.0
 10
659.0781151679299
 20
1531.082464422451
 10
651.4008411930155
 20
1520.279988145864
 42
-0.4142134924785241
 10
643.034357771142
 20
1518.865089573616
 10
640.3333154251884
 20
1520.784707920111
 42
0.4142104095021589
 10
634.7556842009026
 20
1519.841476527969
 10
633.9945902259655
 20
1518.770586475655
 42
-0.4142088631848201
 10
628.4169762152165
 20
1517.827342850068
 10
627.3250947286913
 20
1518.603329314109
 42
0.5973386449645318
 10
621.0103414194626
 20
1515.482098905182
 42
-0.3561150479151772
 10
616.0144630948017
 20
1509.774965886391
 10
606.5488661780955
 20
1508.17418947807
 10
604.5478962809275
 20
1520.006181997845
 42
-0.4142135623730951
 10
616.8366776519716
 20
1537.297389370804
 10
1016.166528500202
 20
1604.830140870966
  0
LWPOLYLINE
  5
4EE
330
1F
100
AcDbEntity
  8
cherpes
  6
Continuous
100
AcDbPolyline
 90
        8
 70
   128
 43
0.0
 10
657.3863309848469
 20
1484.781045115319
 10
665.0636084218245
 20
1495.583519519767
 42
-0.1989122287127879
 10
667.6570783820992
 20
1497.210321441995
 10
1001.630515461687
 20
1553.690309316789
 42
-0.3677254187910698
 10
1006.083207746177
 20
1551.037999334484
 10
1008.793696910865
 20
1543.094052689034
 42
0.3677253557588628
 10
1013.246388319412
 20
1540.441742558593
 10
1026.654204804379
 20
1542.709205193236
  0
LINE
  5
4EF
330
1F
100
AcDbEntity
  8
minu
100
AcDbLine
 10
707.9760851302717
 20
1395.955035220146
 30
0.0
 11
682.0941806200198
 21
1492.547617849053
 31
0.0
  0
LINE
  5
4F0
330
1F
100
AcDbEntity
  8
minu
100
AcDbLine
 10
707.9760851302719
 20
1395.955035220146
 30
0.0
 11
732.124385186715
 21
1402.425552718854
 31
0.0
  0
LINE
  5
4F1
330
1F
100
AcDbEntity
  8
minu
100
AcDbLine
 10
732.124385186715
 20
1402.425552718854
 30
0.0
 11
725.6537546598915
 21
1426.5736570051
 31
0.0
  0
LWPOLYLINE
  5
4F4
330
1F
100
AcDbEntity
  8
cherpes
  6
Continuous
100
AcDbPolyline
 90
        8
 70
   128
 43
0.0
 10
651.4008411930155
 20
1520.279988145864
 10
659.0781186299929
 20
1531.082462550311
 42
-0.1989122287127879
 10
661.6715885902678
 20
1532.70926447254
 10
995.6450256698557
 20
1589.189252347334
 42
-0.3677254187910698
 10
1000.097717954345
 20
1586.536942365028
 10
1002.808207119034
 20
1578.592995719578
 42
0.3677253557588628
 10
1007.26089852758
 20
1575.940685589138
 10
1020.668715012547
 20
1578.20814822378
  0
LINE
  5
4F5
330
1F
100
AcDbEntity
  8
cherpes
  6
Continuous
100
AcDbLine
 10
665.0636049597614
 20
1495.583521391907
 30
0.0
 11
657.3863309848469
 21
1484.781045115319
 31
0.0
  0
ARC
  5
4F6
330
1F
100
AcDbEntity
  8
cherpes
  6
Continuous
100
AcDbCircle
 10
652.4956398189644
 20
1488.2568385384
 30
0.0
 40
5.999999999997963
100
AcDbArc
 50
234.598767305984
 51
324.5987536332059
  0
LINE
  5
4F7
330
1F
100
AcDbEntity
  8
cherpes
  6
Continuous
100
AcDbLine
 10
649.0198475629735
 20
1483.366146543072
 30
0.0
 11
646.31880521702
 21
1485.285764889566
 31
0.0
  0
ARC
  5
4F8
330
1F
100
AcDbEntity
  8
cherpes
  6
Continuous
100
AcDbCircle
 10
644.0016103777233
 20
1482.025303560743
 30
0.0
 40
4.000000000001707
100
AcDbArc
 50
54.59876727140901
 51
144.5981505060198
  0
LINE
  5
4F9
330
1F
100
AcDbEntity
  8
cherpes
  6
Continuous
100
AcDbLine
 10
640.7411739927341
 20
1484.342533497424
 30
0.0
 11
639.980080017797
 21
1483.27164344511
 31
0.0
  0
ARC
  5
4FA
330
1F
100
AcDbEntity
  8
cherpes
  6
Continuous
100
AcDbCircle
 10
636.7196436328406
 20
1485.588873381835
 30
0.0
 40
4.000000000000108
100
AcDbArc
 50
234.5990697621065
 51
324.5981505052374
  0
LINE
  5
4FB
330
1F
100
AcDbEntity
  8
cherpes
  6
Continuous
100
AcDbLine
 10
634.402466007048
 20
1482.328399819524
 30
0.0
 11
633.3105845205229
 21
1483.104386283565
 31
0.0
  0
ARC
  5
4FC
330
1F
100
AcDbEntity
  8
cherpes
  6
Continuous
100
AcDbCircle
 10
630.9934068946635
 20
1479.843912721299
 30
0.0
 40
4.000000000002378
100
AcDbArc
 50
54.59906976095759
 51
178.0050857052868
  0
ARC
  5
4FD
330
1F
100
AcDbEntity
  8
cherpes
  6
Continuous
100
AcDbCircle
 10
620.9994676862459
 20
1480.192020604644
 30
0.0
 40
5.999999999997443
100
AcDbArc
 50
279.5987673060107
 51
358.0050857052967
  0
LINE
  5
4FE
330
1F
100
AcDbEntity
  8
cherpes
  6
Continuous
100
AcDbLine
 10
621.9999528866331
 20
1474.276022855847
 30
0.0
 11
612.534355969927
 21
1472.675246447526
 31
0.0
  0
LINE
  5
4FF
330
1F
100
AcDbEntity
  8
cherpes
  6
Continuous
100
AcDbLine
 10
612.534355969927
 20
1472.675246447526
 30
0.0
 11
610.5333860727589
 21
1484.5072389673
 31
0.0
  0
LWPOLYLINE
  5
525
330
1F
100
AcDbEntity
  8
minu
370
    50
100
AcDbPolyline
 90
       12
 70
     0
 43
0.0
 10
716.9057019813334
 20
1508.249834163237
 10
722.7885200740209
 20
1504.853387553831
 42
-0.198912367379661
 10
723.0214829871655
 20
1504.549784374489
 10
723.0972893303758
 20
1504.266871250093
 42
-0.4142135623730951
 10
722.7437359397826
 20
1503.654498814397
 10
675.2685818109331
 20
1490.933569605029
 42
0.3152987888789831
 10
674.8998939844384
 20
1490.494184563258
 10
669.93761010925
 20
1433.775020328704
 42
0.5205670505517465
 10
670.5651169808471
 20
1433.248479544186
 10
670.6412504966509
 20
1433.268879458263
 42
0.1989123673796538
 10
670.9448536759919
 20
1433.501842371407
 10
675.8413002853985
 20
1441.982736675448
  0
LWPOLYLINE
  5
52A
330
1F
100
AcDbEntity
  8
cherpes
  6
Continuous
100
AcDbPolyline
 90
        3
 70
   128
 43
0.0
 10
1016.149105157519
 20
1604.827194318713
 10
1026.654201496585
 20
1542.709207696829
 10
1013.246391258619
 20
1540.441743055659
  0
LINE
  5
52B
330
1F
100
AcDbEntity
  8
cherpes
100
AcDbLine
 10
667.6570783820992
 20
1497.210321441995
 30
0.0
 11
661.6541654843254
 21
1532.706317960323
 31
0.0
  0
LINE
  5
52C
330
1F
100
AcDbEntity
  8
cherpes
100
AcDbLine
 10
653.4961243134668
 20
1482.340840670227
 30
0.0
 11
647.5106345216354
 21
1517.839783700771
 31
0.0
  0
LINE
  5
52D
330
1F
100
AcDbEntity
  8
cherpes
100
AcDbLine
 10
643.3346414742798
 20
1485.969305650227
 30
0.0
 11
637.3491516824485
 21
1521.468248680772
 31
0.0
  0
LINE
  5
52E
330
1F
100
AcDbEntity
  8
cherpes
100
AcDbLine
 10
637.3866229473526
 20
1481.644873052979
 30
0.0
 11
631.4011331555211
 21
1517.143816083524
 31
0.0
  0
LINE
  5
52F
330
1F
100
AcDbEntity
  8
cherpes
100
AcDbLine
 10
623.2355023025316
 20
1518.928737202156
 30
0.0
 11
629.220992094363
 21
1483.429794171611
 31
0.0
  0
LINE
  5
530
330
1F
100
AcDbEntity
  8
cherpes
100
AcDbLine
 10
625.5140900231859
 20
1476.24003564076
 30
0.0
 11
619.5286002313545
 21
1511.738978671304
 31
0.0
  0
LINE
  5
531
330
1F
100
AcDbEntity
  8
cherpes
100
AcDbLine
 10
1004.344522503435
 20
1553.182838393167
 30
0.0
 11
998.3590327116043
 21
1588.681781423712
 31
0.0
  0
LINE
  5
532
330
1F
100
AcDbEntity
  8
cherpes
100
AcDbLine
 10
1010.532381771989
 20
1540.949213857667
 30
0.0
 11
1004.546891980158
 21
1576.448156888212
 31
0.0
  0
HATCH
  5
533
330
1F
100
AcDbEntity
  8
hatch
  6
Continuous
 48
10.0
100
AcDbHatch
 10
0.0
 20
0.0
 30
0.0
210
0.0
220
0.0
230
1.0
  2
ANSI31
 70
     0
 71
     0
 91
        1
 92
        7
 72
     0
 73
     1
 93
        3
 10
1020.66871396579
 20
1578.208154413391
 10
1018.239359674399
 20
1592.573238987746
 10
1012.845105427545
 20
1576.885063214157
 97
        0
 75
     0
 76
     1
 52
26.02487648433672
 41
2.0
 77
     0
 78
     1
 53
71.02487648433672
 43
-6468.869927276424
 44
15769.45362052483
 45
-6.004939987403968
 46
2.064750771322493
 79
     0
 47
0.4294323049079476
 98
        1
 10
1017.09316892641
 20
1579.613562785215
  0
LINE
  5
534
330
1F
100
AcDbEntity
  8
hatch
  6
Continuous
 48
10.0
100
AcDbLine
 10
1006.18574419523
 20
1575.905567488773
 30
0.0
 11
1016.129048903035
 21
1604.823802501028
 31
0.0
  0
LINE
  5
535
330
1F
100
AcDbEntity
  8
hatch
  6
Continuous
 48
10.0
100
AcDbLine
 10
997.3000925097792
 20
1589.121300476449
 30
0.0
 11
1001.870132150162
 21
1602.41240280304
 31
0.0
  0
LINE
  5
536
330
1F
100
AcDbEntity
  8
hatch
  6
Continuous
 48
10.0
100
AcDbLine
 10
1001.606209270538
 20
1582.115841283121
 30
0.0
 11
1008.999590526598
 21
1603.618102652034
 31
0.0
  0
LINE
  5
537
330
1F
100
AcDbEntity
  8
hatch
  6
Continuous
 48
10.0
100
AcDbLine
 10
976.0387079341498
 20
1585.873529113961
 30
0.0
 11
980.4817570208536
 21
1598.795303256056
 31
0.0
  0
LINE
  5
538
330
1F
100
AcDbEntity
  8
hatch
  6
Continuous
 48
10.0
100
AcDbLine
 10
983.1681663105847
 20
1587.079228962955
 30
0.0
 11
987.6112153972885
 21
1600.001003105051
 31
0.0
  0
LINE
  5
539
330
1F
100
AcDbEntity
  8
hatch
  6
Continuous
 48
10.0
100
AcDbLine
 10
990.297624687021
 20
1588.284928811949
 30
0.0
 11
994.7406737737249
 21
1601.206702954045
 31
0.0
  0
LINE
  5
53A
330
1F
100
AcDbEntity
  8
hatch
  6
Continuous
 48
10.0
100
AcDbLine
 10
961.7797911812768
 20
1583.462129415973
 30
0.0
 11
966.2228402679806
 21
1596.383903558069
 31
0.0
  0
LINE
  5
53B
330
1F
100
AcDbEntity
  8
hatch
  6
Continuous
 48
10.0
100
AcDbLine
 10
968.9092495577131
 20
1584.667829264967
 30
0.0
 11
973.3522986444169
 21
1597.589603407063
 31
0.0
  0
LINE
  5
53C
330
1F
100
AcDbEntity
  8
hatch
  6
Continuous
 48
10.0
100
AcDbLine
 10
947.5208744284032
 20
1581.050729717984
 30
0.0
 11
951.9639235151071
 21
1593.972503860079
 31
0.0
  0
LINE
  5
53D
330
1F
100
AcDbEntity
  8
hatch
  6
Continuous
 48
10.0
100
AcDbLine
 10
954.6503328048395
 20
1582.256429566978
 30
0.0
 11
959.0933818915434
 21
1595.178203709073
 31
0.0
  0
LINE
  5
53E
330
1F
100
AcDbEntity
  8
hatch
  6
Continuous
 48
10.0
100
AcDbLine
 10
919.0030409226583
 20
1576.227930322006
 30
0.0
 11
923.4460900093623
 21
1589.149704464102
 31
0.0
  0
LINE
  5
53F
330
1F
100
AcDbEntity
  8
hatch
  6
Continuous
 48
10.0
100
AcDbLine
 10
926.1324992990953
 20
1577.433630171002
 30
0.0
 11
930.5755483857993
 21
1590.355404313097
 31
0.0
  0
LINE
  5
540
330
1F
100
AcDbEntity
  8
hatch
  6
Continuous
 48
10.0
100
AcDbLine
 10
933.2619576755318
 20
1578.639330019996
 30
0.0
 11
937.7050067622358
 21
1591.561104162091
 31
0.0
  0
LINE
  5
541
330
1F
100
AcDbEntity
  8
hatch
  6
Continuous
 48
10.0
100
AcDbLine
 10
940.3914160519683
 20
1579.845029868989
 30
0.0
 11
944.8344651386721
 21
1592.766804011085
 31
0.0
  0
LINE
  5
542
330
1F
100
AcDbEntity
  8
hatch
  6
Continuous
 48
10.0
100
AcDbLine
 10
897.6146657933504
 20
1572.610830775024
 30
0.0
 11
902.0577148800544
 21
1585.532604917119
 31
0.0
  0
LINE
  5
543
330
1F
100
AcDbEntity
  8
hatch
  6
Continuous
 48
10.0
100
AcDbLine
 10
904.7441241697869
 20
1573.816530624018
 30
0.0
 11
909.1871732564907
 21
1586.738304766113
 31
0.0
  0
LINE
  5
544
330
1F
100
AcDbEntity
  8
hatch
  6
Continuous
 48
10.0
100
AcDbLine
 10
911.8735825462218
 20
1575.022230473012
 30
0.0
 11
916.3166316329256
 21
1587.944004615108
 31
0.0
  0
LINE
  5
545
330
1F
100
AcDbEntity
  8
hatch
  6
Continuous
 48
10.0
100
AcDbLine
 10
876.2262906640403
 20
1568.993731228041
 30
0.0
 11
880.6693397507443
 21
1581.915505370136
 31
0.0
  0
LINE
  5
546
330
1F
100
AcDbEntity
  8
hatch
  6
Continuous
 48
10.0
100
AcDbLine
 10
883.3557490404775
 20
1570.199431077036
 30
0.0
 11
887.7987981271807
 21
1583.12120521913
 31
0.0
  0
LINE
  5
547
330
1F
100
AcDbEntity
  8
hatch
  6
Continuous
 48
10.0
100
AcDbLine
 10
890.485207416914
 20
1571.40513092603
 30
0.0
 11
894.9282565036178
 21
1584.326905068126
 31
0.0
  0
LINE
  5
548
330
1F
100
AcDbEntity
  8
hatch
  6
Continuous
 48
10.0
100
AcDbLine
 10
869.0968322876056
 20
1567.788031379046
 30
0.0
 11
873.5398813743096
 21
1580.709805521142
 31
0.0
  0
LINE
  5
549
330
1F
100
AcDbEntity
  8
hatch
  6
Continuous
 48
10.0
100
AcDbLine
 10
847.708457158296
 20
1564.170931832065
 30
0.0
 11
852.1515062449994
 21
1577.092705974159
 31
0.0
  0
LINE
  5
54A
330
1F
100
AcDbEntity
  8
hatch
  6
Continuous
 48
10.0
100
AcDbLine
 10
854.8379155347324
 20
1565.376631681059
 30
0.0
 11
859.2809646214364
 21
1578.298405823154
 31
0.0
  0
LINE
  5
54B
330
1F
100
AcDbEntity
  8
hatch
  6
Continuous
 48
10.0
100
AcDbLine
 10
861.9673739111693
 20
1566.582331530053
 30
0.0
 11
866.4104229978729
 21
1579.504105672148
 31
0.0
  0
LINE
  5
54C
330
1F
100
AcDbEntity
  8
hatch
  6
Continuous
 48
10.0
100
AcDbLine
 10
840.5789987818589
 20
1562.965231983069
 30
0.0
 11
845.0220478685627
 21
1575.887006125165
 31
0.0
  0
LINE
  5
54D
330
1F
100
AcDbEntity
  8
hatch
  6
Continuous
 48
10.0
100
AcDbLine
 10
833.4495404054241
 20
1561.759532134075
 30
0.0
 11
837.892589492128
 21
1574.68130627617
 31
0.0
  0
LINE
  5
54E
330
1F
100
AcDbEntity
  8
hatch
  6
Continuous
 48
10.0
100
AcDbLine
 10
826.3200820289876
 20
1560.553832285081
 30
0.0
 11
830.7631311156915
 21
1573.475606427177
 31
0.0
  0
LINE
  5
54F
330
1F
100
AcDbEntity
  8
hatch
  6
Continuous
 48
10.0
100
AcDbLine
 10
819.1906236525513
 20
1559.348132436087
 30
0.0
 11
823.6336727392549
 21
1572.269906578183
 31
0.0
  0
LINE
  5
550
330
1F
100
AcDbEntity
  8
hatch
  6
Continuous
 48
10.0
100
AcDbLine
 10
812.0611652761146
 20
1558.142432587093
 30
0.0
 11
816.5042143628186
 21
1571.064206729189
 31
0.0
  0
LINE
  5
551
330
1F
100
AcDbEntity
  8
hatch
  6
Continuous
 48
10.0
100
AcDbLine
 10
804.9317068996774
 20
1556.936732738098
 30
0.0
 11
809.3747559863814
 21
1569.858506880193
 31
0.0
  0
LINE
  5
552
330
1F
100
AcDbEntity
  8
hatch
  6
Continuous
 48
10.0
100
AcDbLine
 10
797.8022485232427
 20
1555.731032889103
 30
0.0
 11
802.2452976099467
 21
1568.652807031199
 31
0.0
  0
LINE
  5
55B
330
1F
100
AcDbEntity
  8
Medis
100
AcDbLine
 10
725.6537546598915
 20
1426.5736570051
 30
0.0
 11
1042.544893485407
 21
1511.483657869037
 31
0.0
  0
LINE
  5
55D
330
1F
100
AcDbEntity
  8
Medis
100
AcDbLine
 10
732.1241793210344
 20
1402.425497557547
 30
0.0
 11
1049.01531814655
 21
1487.335498421483
 31
0.0
  0
LINE
  5
55F
330
1F
100
AcDbEntity
  8
minu
100
AcDbLine
 10
707.9760851302719
 20
1395.955035220145
 30
0.0
 11
713.1524660323214
 21
1376.636518694364
 31
0.0
  0
LINE
  5
560
330
1F
100
AcDbEntity
  8
minu
100
AcDbLine
 10
732.124385186715
 20
1402.425552718854
 30
0.0
 11
737.3008896080326
 21
1383.107069290384
 31
0.0
  0
LWPOLYLINE
  5
5A8
330
1F
100
AcDbEntity
  8
hüdroiso
 48
0.5
100
AcDbPolyline
 90
        2
 70
     0
 43
0.0
 10
857.6112843404416
 20
522.4349547264124
 10
1935.671136501911
 20
811.300204523679
  0
LWPOLYLINE
  5
5A9
330
1F
100
AcDbEntity
  8
hüdroiso
 48
0.5
100
AcDbPolyline
 90
        3
 70
     0
 43
0.0
 10
2033.59043931458
 20
837.5376010933077
 10
3204.017616194818
 20
1151.152599501002
 10
4374.444788060247
 20
837.5375840002181
  0
LINE
  5
5AF
330
1F
100
AcDbEntity
  8
minu
100
AcDbLine
 10
1272.75882086855
 20
209.840501981463
 30
0.0
 11
1672.758820868551
 21
209.840501981463
 31
0.0
  0
LINE
  5
5B0
330
1F
100
AcDbEntity
  8
minu
100
AcDbLine
 10
1272.75882086855
 20
194.840501981463
 30
0.0
 11
1672.758820868551
 21
194.840501981463
 31
0.0
  0
LINE
  5
5B1
330
1F
100
AcDbEntity
  8
minu
100
AcDbLine
 10
1272.75882086855
 20
-55.15949801853697
 30
0.0
 11
1672.758820868551
 21
-55.1594980185369
 31
0.0
  0
LINE
  5
5B2
330
1F
100
AcDbEntity
  8
minu
100
AcDbLine
 10
1272.75882086855
 20
-70.15949801853697
 30
0.0
 11
1672.758820868551
 21
-70.1594980185369
 31
0.0
  0
HATCH
  5
5C1
330
1F
100
AcDbEntity
  8
minu
100
AcDbHatch
 10
0.0
 20
0.0
 30
0.0
210
0.0
220
0.0
230
1.0
  2
AR-SAND
 70
     0
 71
     1
 91
        1
 92
        7
 72
     0
 73
     1
 93
        4
 10
1272.75882086855
 20
478.3819378563141
 10
1262.75882086855
 20
475.7024459320028
 10
1262.75882086855
 20
-195.1883772849728
 10
1272.75882086855
 20
-195.1883772849728
 97
        4
330
2A9
330
4C1
330
4C3
330
2AD
 75
     0
 76
     1
 52
0.0
 41
0.5
 77
     0
 78
     4
 53
37.5
 43
0.0
 44
0.0
 45
-0.8000156479920228
 46
24.47066186646711
 79
     6
 49
0.0
 49
-19.304
 49
0.0
 49
-21.59
 49
0.0
 49
-20.6375
 53
7.499999999999999
 43
0.0
 44
0.0
 45
22.47616415690013
 46
35.84125502841771
 79
     6
 49
0.0
 49
-10.414
 49
0.0
 49
-17.399
 49
0.0
 49
-6.6675
 53
327.4999999999999
 43
-15.621
 44
0.0
 45
39.5496185120729
 46
0.0718592339272846
 79
     6
 49
0.0
 49
-6.349999999999999
 49
0.0
 49
-22.86
 49
0.0
 49
-29.845
 53
317.5
 43
-15.621
 44
0.0
 45
38.17782262361486
 46
11.14646616286081
 79
     6
 49
0.0
 49
-3.174999999999999
 49
0.0
 49
-14.98599999999999
 49
0.0
 49
-17.145
 47
1.604698736237928
 98
        1
 10
1266.82387053037
 20
74.85204575431271
  0
HATCH
  5
5C3
330
1F
100
AcDbEntity
  8
minu
100
AcDbHatch
 10
0.0
 20
0.0
 30
612.0750113412469
210
0.0
220
0.0
230
1.0
  2
ANSI31
 70
     0
 71
     1
 91
        1
 92
        7
 72
     1
 73
     1
 93
        4
 10
3089.017616194817
 20
1256.498950591238
 42
0.0
 10
3106.517616194818
 20
1256.498950591238
 42
-0.5948717948717923
 10
3301.517616194818
 20
1256.498950591238
 42
0.0
 10
3319.017616194818
 20
1256.498950591238
 42
0.6782608695652167
 97
        4
330
5CA
330
5CC
330
5C9
330
5C8
 75
     0
 76
     1
 52
0.0
 41
1.0
 77
     0
 78
     1
 53
45.0
 43
-1080.965632565599
 44
-2363.411700831368
 45
-2.245064030267287
 46
2.245064030267288
 79
     0
 47
0.4714111327995424
 98
        1
 10
3197.809452065992
 20
1328.06297672732
  0
LINE
  5
5C4
330
1F
100
AcDbEntity
  8
minu
  6
ACAD_ISO02W100
 48
0.5
100
AcDbLine
 10
3319.017616194818
 20
1256.498950591238
 30
0.0
 11
3329.517616194817
 21
1243.001943951283
 31
0.0
  0
LINE
  5
5C5
330
1F
100
AcDbEntity
  8
minu
  6
ACAD_ISO02W100
 48
0.5
100
AcDbLine
 10
3301.517616194818
 20
1256.498950591238
 30
0.0
 11
3321.517616194817
 21
1243.001943951283
 31
0.0
  0
LINE
  5
5C6
330
1F
100
AcDbEntity
  8
minu
  6
ACAD_ISO02W100
 48
0.5
100
AcDbLine
 10
3106.517616194818
 20
1256.498950591238
 30
0.0
 11
3086.517616194818
 21
1243.001943951283
 31
0.0
  0
LINE
  5
5C7
330
1F
100
AcDbEntity
  8
minu
  6
ACAD_ISO02W100
 48
0.5
100
AcDbLine
 10
3089.017616194817
 20
1256.498950591238
 30
0.0
 11
3078.517616194818
 21
1243.001943951283
 31
0.0
  0
ARC
  5
5C8
102
{ACAD_REACTORS
330
5C3
102
}
330
1F
100
AcDbEntity
  8
minu
100
AcDbCircle
 10
3204.017616194818
 20
1210.723309565597
 30
0.0
 40
123.775641025641
100
AcDbArc
 50
21.70498172050733
 51
158.2950182794926
  0
LINE
  5
5C9
102
{ACAD_REACTORS
330
5C3
102
}
330
1F
100
AcDbEntity
  8
minu
100
AcDbLine
 10
3301.517616194818
 20
1256.498950591238
 30
0.0
 11
3319.017616194818
 21
1256.498950591238
 31
0.0
  0
LINE
  5
5CA
102
{ACAD_REACTORS
330
5C3
102
}
330
1F
100
AcDbEntity
  8
minu
100
AcDbLine
 10
3106.517616194818
 20
1256.498950591238
 30
0.0
 11
3089.017616194817
 21
1256.498950591238
 31
0.0
  0
LINE
  5
5CB
330
1F
100
AcDbEntity
  8
minu
  6
ACAD_ISO02W100
 48
0.5
100
AcDbLine
 10
3321.517616194817
 20
1243.001943951283
 30
0.0
 11
3329.517616194817
 21
1243.001943951283
 31
0.0
  0
ARC
  5
5CC
102
{ACAD_REACTORS
330
5C3
102
}
330
1F
100
AcDbEntity
  8
minu
100
AcDbCircle
 10
3204.017616194818
 20
1203.548519556755
 30
0.0
 40
110.9504310344829
100
AcDbArc
 50
28.50555954909239
 51
151.4944404509076
  0
LINE
  5
5CD
330
1F
100
AcDbEntity
  8
minu
  6
ACAD_ISO02W100
 48
0.5
100
AcDbLine
 10
3078.517616194818
 20
1243.001943951283
 30
0.0
 11
3086.517616194818
 21
1243.001943951284
 31
0.0
  0
ARC
  5
5CE
330
1F
100
AcDbEntity
  8
minu
100
AcDbCircle
 10
3204.017616194819
 20
1220.500753475094
 30
0.0
 40
127.5011904761894
100
AcDbArc
 50
10.16469620970692
 51
169.835303790293
  0
LINE
  5
5D0
330
1F
100
AcDbEntity
  8
minu
370
    50
100
AcDbLine
 10
3157.146344336617
 20
1216.315316286616
 30
0.0
 11
3028.808780192238
 21
1183.683715629636
 31
0.0
  0
LINE
  5
5D1
330
1F
100
AcDbEntity
  8
minu
370
    50
100
AcDbLine
 10
3250.894116707842
 20
1216.318488428447
 30
0.0
 11
3379.244156640953
 21
1183.683715629636
 31
0.0
  0
LWPOLYLINE
  5
5ED
330
1F
100
AcDbEntity
  8
minu
370
    80
100
AcDbPolyline
 90
        5
 70
     0
 43
0.0
 10
726.8040392716537
 20
1504.929354074369
 10
755.2789849018828
 20
1512.559192760509
 10
797.6243699416214
 20
1550.824625978334
 42
-0.1428804059167438
 10
812.7470130538618
 20
1558.148143931968
 10
814.4484598839667
 20
1558.435217468936
  0
LINE
  5
5EF
330
1F
100
AcDbEntity
  8
minu
100
AcDbLine
 10
755.2789849018828
 20
1512.559192760509
 30
0.0
 11
815.0730186350275
 21
1554.742121195399
 31
0.0
  0
LINE
  5
5F3
330
1F
100
AcDbEntity
  8
minu
100
AcDbLine
 10
815.0730186350271
 20
1554.742121195399
 30
0.0
 11
815.8074621116783
 21
1550.399262397665
 31
0.0
  0
LINE
  5
60A
330
1F
100
AcDbEntity
  8
tarpikl
100
AcDbLine
 10
3168.765616313953
 20
1268.016665471517
 30
0.0
 11
3179.028950314154
 21
1311.249232349116
 31
0.0
  0
LINE
  5
60B
330
1F
100
AcDbEntity
  8
tarpikl
100
AcDbLine
 10
3228.460421960189
 20
1311.249232349116
 30
0.0
 11
3179.028950314154
 21
1311.249232349116
 31
0.0
  0
LINE
  5
60C
330
1F
100
AcDbEntity
  8
tarpikl
  6
Continuous
 48
20.0
100
AcDbLine
 10
3168.765616438575
 20
1268.016665553504
 30
0.0
 11
3090.716149687597
 21
1246.127987661773
 31
0.0
  0
LINE
  5
60D
330
1F
100
AcDbEntity
  8
tarpikl
  6
Continuous
 48
20.0
100
AcDbLine
 10
3168.765616438736
 20
1268.016665553612
 30
0.0
 11
3093.840690152088
 21
1237.88418754931
 31
0.0
  0
LINE
  5
60E
330
1F
100
AcDbEntity
  8
tarpikl
  6
Continuous
 48
20.0
100
AcDbLine
 10
3168.765616438738
 20
1268.016665553612
 30
0.0
 11
3097.707967317427
 21
1230.077248402399
 31
0.0000000000000143
  0
LINE
  5
60F
330
1F
100
AcDbEntity
  8
tarpikl
  6
Continuous
 48
20.0
100
AcDbLine
 10
3168.765616438738
 20
1268.016665553612
 30
0.0
 11
3101.553296112576
 21
1223.79799548685
 31
0.0000000000000143
  0
ARC
  5
610
330
1F
100
AcDbEntity
  8
tarpikl
  6
Continuous
 48
20.0
100
AcDbCircle
 10
3176.14059089894
 20
1273.791276849521
 30
0.0
 40
89.7919413141016
100
AcDbArc
 50
191.6382742007684
 51
213.8325781400756
  0
LINE
  5
611
330
1F
100
AcDbEntity
  8
tarpikl
  6
Continuous
 48
20.0
100
AcDbLine
 10
3168.765616438226
 20
1268.016665553407
 30
0.0
 11
3088.194708251943
 21
1255.677347115869
 31
0.0
  0
LINE
  5
618
330
1F
100
AcDbEntity
  8
tarpikl
100
AcDbLine
 10
3239.289422935734
 20
1268.014331700004
 30
0.0
 11
3229.0289502594
 21
1311.247577750746
 31
0.0
  0
LINE
  5
619
330
1F
100
AcDbEntity
  8
tarpikl
  6
Continuous
 48
20.0
100
AcDbLine
 10
3239.289422811118
 20
1268.014331782
 30
0.0
 11
3317.337440712324
 21
1246.120488317389
 31
0.0
  0
LINE
  5
61A
330
1F
100
AcDbEntity
  8
tarpikl
  6
Continuous
 48
20.0
100
AcDbLine
 10
3239.289422810957
 20
1268.014331782108
 30
0.0
 11
3314.212354647547
 21
1237.876895017363
 31
0.0
  0
LINE
  5
61B
330
1F
100
AcDbEntity
  8
tarpikl
  6
Continuous
 48
20.0
100
AcDbLine
 10
3239.289422810954
 20
1268.014331782108
 30
0.0
 11
3310.344560796727
 21
1230.070211839171
 31
0.0000000000000143
  0
LINE
  5
61C
330
1F
100
AcDbEntity
  8
tarpikl
  6
Continuous
 48
20.0
100
AcDbLine
 10
3239.289422810954
 20
1268.014331782108
 30
0.0
 11
3306.498816424334
 21
1223.791213436365
 31
0.0000000000000143
  0
ARC
  5
61D
330
1F
100
AcDbEntity
  8
tarpikl
  6
Continuous
 48
20.0
100
AcDbCircle
 10
3231.914830553403
 20
1273.789431170198
 30
0.0
 40
89.7919413141016
100
AcDbArc
 50
326.1636297997855
 51
348.3579337390926
  0
LINE
  5
61E
330
1F
100
AcDbEntity
  8
tarpikl
  6
Continuous
 48
20.0
100
AcDbLine
 10
3239.289422811467
 20
1268.014331781903
 30
0.0
 11
3319.85951415664
 21
1255.669680871656
 31
0.0
  0
LINE
  5
641
330
1F
100
AcDbEntity
  8
minu
 48
10.0
100
AcDbLine
 10
3231.410706630029
 20
1250.753677388317
 30
0.0
 11
3213.837647692418
 21
1250.753677388317
 31
0.0
  0
LINE
  5
642
330
1F
100
AcDbEntity
  8
minu
 48
10.0
100
AcDbLine
 10
3231.410706630029
 20
1256.566695666594
 30
0.0
 11
3231.410706630029
 21
1245.341957982672
 31
0.0
  0
LINE
  5
643
330
1F
100
AcDbEntity
  8
minu
 48
10.0
100
AcDbLine
 10
3176.490336083585
 20
1256.360354503936
 30
0.0
 11
3176.574679750889
 21
1245.135933707358
 31
0.0
  0
LINE
  5
644
330
1F
100
AcDbEntity
  8
minu
 48
10.0
100
AcDbLine
 10
3176.534015614769
 20
1250.547500333897
 30
0.0
 11
3194.106578444574
 21
1250.679545846075
 31
0.0
  0
LINE
  5
645
330
1F
100
AcDbEntity
  8
minu
 48
10.0
100
AcDbLine
 10
3120.121995997395
 20
1208.494798960217
 30
0.0
 11
3124.522456546989
 21
1191.481617383093
 31
0.0
  0
LINE
  5
646
330
1F
100
AcDbEntity
  8
minu
 48
10.0
100
AcDbLine
 10
3125.749811611659
 20
1209.950433844186
 30
0.0
 11
3114.882693880469
 21
1207.139653118247
 31
0.0
  0
LINE
  5
647
330
1F
100
AcDbEntity
  8
minu
 48
10.0
100
AcDbLine
 10
3288.042225890905
 20
1208.322198603267
 30
0.0
 11
3283.710995175979
 21
1191.291260845209
 31
0.0
  0
LINE
  5
648
330
1F
100
AcDbEntity
  8
minu
 48
10.0
100
AcDbLine
 10
3282.408536683167
 20
1209.754932847355
 30
0.0
 11
3293.286996120655
 21
1206.988372466706
 31
0.0
  0
LINE
  5
649
330
1F
100
AcDbEntity
  8
minu
 48
10.0
100
AcDbLine
 10
693.7340844016853
 20
1497.137599061477
 30
0.0
 11
698.1345449512787
 21
1480.124417484352
 31
0.0
  0
LINE
  5
64A
330
1F
100
AcDbEntity
  8
minu
 48
10.0
100
AcDbLine
 10
699.3619000159492
 20
1498.593233945445
 30
0.0
 11
688.4947822847589
 21
1495.782453219506
 31
0.0
  0
LINE
  5
64B
330
1F
100
AcDbEntity
  8
minu
 48
10.0
100
AcDbLine
 10
737.4548225094923
 20
1509.932774853115
 30
0.0
 11
741.8552830590857
 21
1492.919593275991
 31
0.0
  0
LINE
  5
64C
330
1F
100
AcDbEntity
  8
minu
 48
10.0
100
AcDbLine
 10
743.0826381237563
 20
1511.388409737084
 30
0.0
 11
732.2155203925659
 21
1508.577629011145
 31
0.0
  0
LINE
  5
64D
330
1F
100
AcDbEntity
  8
minu
100
AcDbLine
 10
755.2789849018829
 20
1512.559192760509
 30
0.0
 11
815.8074621116789
 21
1550.399262397666
 31
0.0
  0
LINE
  5
650
330
1F
100
AcDbEntity
  8
minu
100
AcDbLine
 10
755.278984901883
 20
1512.559192760509
 30
0.0
 11
817.2587087307668
 21
1541.817854368656
 31
0.0
  0
LINE
  5
651
330
1F
100
AcDbEntity
  8
minu
100
AcDbLine
 10
755.2789849018819
 20
1512.559192760508
 30
0.0
 11
817.9016567728911
 21
1538.016019850424
 31
0.0
  0
LINE
  5
652
330
1F
100
AcDbEntity
  8
minu
100
AcDbLine
 10
755.2789849018834
 20
1512.559192760509
 30
0.0
 11
819.3394914534639
 21
1529.513918339925
 31
0.0
  0
LINE
  5
653
330
1F
100
AcDbEntity
  8
minu
100
AcDbLine
 10
755.2789849018819
 20
1512.559192760508
 30
0.0
 11
819.9672428822113
 21
1525.801943352341
 31
0.0
  0
LINE
  5
654
330
1F
100
AcDbEntity
  8
minu
100
AcDbLine
 10
817.2587087307668
 20
1541.817854368657
 30
0.0
 11
817.9016567728906
 21
1538.016019850423
 31
0.0
  0
LINE
  5
655
330
1F
100
AcDbEntity
  8
minu
100
AcDbLine
 10
819.3394914534637
 20
1529.513918339925
 30
0.0
 11
819.9672428822109
 21
1525.801943352341
 31
0.0
  0
VIEWPORT
  5
2E
330
1B
100
AcDbEntity
 67
     1
  8
0
100
AcDbViewport
 10
205.0174560554284
 20
145.5373719059813
 30
0.0
 40
556.1860928707935
 41
360.1764901669643
 68
     1
 69
     1
 12
205.0174560554284
 22
145.5373719059813
 13
0.0
 23
0.0
 14
10.0
 24
10.0
 15
10.0
 25
10.0
 16
0.0
 26
0.0
 36
1.0
 17
0.0
 27
0.0
 37
0.0
 42
50.0
 43
0.0
 44
0.0
 45
360.1764901669643
 50
0.0
 51
0.0
 72
   100
 90
    32800
  1

281
     0
 71
     1
 74
     0
110
0.0
120
0.0
130
0.0
111
1.0
121
0.0
131
0.0
112
0.0
122
1.0
132
0.0
 79
     0
146
0.0
  0
VIEWPORT
  5
30
330
1B
100
AcDbEntity
 67
     1
  8
vaateväli
100
AcDbViewport
 10
214.4471935615894
 20
144.662287531741
 30
0.0
 40
400.4636546845074
 41
155.3847106911915
 68
     2
 69
     2
 12
2552.247443865709
 22
591.0717603467335
 13
0.0
 23
0.0
 14
10.0
 24
10.0
 15
10.0
 25
10.0
 16
0.0
 26
0.0
 36
1.0
 17
0.0
 27
0.0
 37
0.0
 42
50.0
 43
0.0
 44
0.0
 45
1553.847111859307
 50
0.0
 51
0.0
 72
   100
 90
    49248
  1

281
     0
 71
     1
 74
     0
110
0.0
120
0.0
130
0.0
111
1.0
121
0.0
131
0.0
112
0.0
122
1.0
132
0.0
 79
     0
146
0.0
  0
LINE
  5
297
330
1B
100
AcDbEntity
 67
     1
  8
kiri
100
AcDbLine
 10
285.4340137189108
 20
23.83269641732408
 30
0.0
 11
285.4340137189108
 21
3.832696417324086
 31
0.0
  0
LINE
  5
298
330
1B
100
AcDbEntity
 67
     1
  8
kiri
100
AcDbLine
 10
342.3596075534103
 20
23.83269641732408
 30
0.0
 11
285.4340137189108
 21
23.83269641732408
 31
0.0
  0
MTEXT
  5
299
330
1B
100
AcDbEntity
 67
     1
  8
kiri
100
AcDbMText
 10
352.972735806423
 20
22.22764468693981
 30
0.0
 40
2.0
 41
67.0
 71
     1
 72
     5
  1
{\fArial|b0|i0|c186|p34;Madala kaldega soojustamata katus}
 73
     1
 44
1.0
  0
MTEXT
  5
29A
330
1B
100
AcDbEntity
 67
     1
  8
kiri
100
AcDbMText
 10
343.3215300782165
 20
17.93655668385338
 30
0.0
 40
2.0
 41
30.0
 71
     1
 72
     5
  1
{\fArial|b0|i0|c186|p34;Lafarge Tekkin OÜ\PRävala pst 8C \PTallinn\PEesti}
 73
     1
 44
1.0
  0
LINE
  5
29B
330
1B
100
AcDbEntity
 67
     1
  8
kiri
100
AcDbLine
 10
409.9117124560559
 20
23.83269641732408
 30
0.0
 11
342.3596075534103
 21
23.83269641732408
 31
0.0
  0
LINE
  5
29C
330
1B
100
AcDbEntity
 67
     1
  8
kiri
100
AcDbLine
 10
342.3596075534103
 20
23.83269641732408
 30
0.0
 11
342.3596075534103
 21
3.832696417324086
 31
0.0
  0
LINE
  5
29D
330
1B
100
AcDbEntity
 67
     1
  8
kiri
100
AcDbLine
 10
409.9117124560559
 20
18.83269641732408
 30
0.0
 11
342.3596075534103
 21
18.83269641732408
 31
0.0
  0
MTEXT
  5
29F
330
1B
100
AcDbEntity
 67
     1
  8
kiri
100
AcDbMText
 10
380.9238273270659
 20
7.016658585098639
 30
0.0
 40
2.0
 41
29.0
 71
     1
 72
     5
  1
{\fArial|b0|i0|c186|p34;Aasta 2004}
 73
     1
 44
1.0
  0
MTEXT
  5
2A0
330
1B
100
AcDbEntity
 67
     1
  8
kiri
100
AcDbMText
 10
380.9238273270659
 20
11.71412013148699
 30
0.0
 40
2.0
 41
29.0
 71
     1
 72
     5
  1
{\fArial|b0|i0|c186|p34;Mõõtkava 1:10 ja 1:2}
 73
     1
 44
1.0
  0
LINE
  5
2A1
330
1B
100
AcDbEntity
 67
     1
  8
kiri
100
AcDbLine
 10
409.9117124560559
 20
8.38269347688049
 30
0.0
 11
377.097365859031
 21
8.38269347688049
 31
0.0
  0
LINE
  5
2A2
330
1B
100
AcDbEntity
 67
     1
  8
kiri
100
AcDbLine
 10
409.9117124560559
 20
13.18172472170249
 30
0.0
 11
377.097365859031
 21
13.18172472170249
 31
0.0
  0
LINE
  5
2A3
330
1B
100
AcDbEntity
 67
     1
  8
kiri
100
AcDbLine
 10
377.097365859031
 20
18.83269641732408
 30
0.0
 11
377.097365859031
 21
3.832696417324086
 31
0.0
  0
OLE2FRAME
  5
2A4
330
1B
100
AcDbEntity
 67
     1
  8
0
100
AcDbOle2Frame
 70
     2
  3
Bitmap Image
 10
286.0669889701584
 20
23.61291232854205
 30
0.0
 11
341.9461364173621
 21
4.064314872706518
 31
0.0
 71
     2
 72
     1
 73
     1
 90
    24192
310
815560C0066312E17140406786D2E79C3740000000000000000000A2F05F235F
310
7540406786D2E79C3740000000000000000000A2F05F235F754000AF0BC2DB41
310
1040000000000000000060C0066312E1714000AF0BC2DB411040000000000000
310
00004818AE0800000000000100000100000001000000000001000000005E0000
310
D0CF11E0A1B11AE1000000000000000000000000000000003E000300FEFF0900
310
0600000000000000000000000100000001000000000000000010000002000000
310
01000000FEFFFFFF0000000000000000FFFFFFFFFFFFFFFFFFFFFFFFFFFFFFFF
310
FFFFFFFFFFFFFFFFFFFFFFFFFFFFFFFFFFFFFFFFFFFFFFFFFFFFFFFFFFFFFFFF
310
FFFFFFFFFFFFFFFFFFFFFFFFFFFFFFFFFFFFFFFFFFFFFFFFFFFFFFFFFFFFFFFF
310
FFFFFFFFFFFFFFFFFFFFFFFFFFFFFFFFFFFFFFFFFFFFFFFFFFFFFFFFFFFFFFFF
310
FFFFFFFFFFFFFFFFFFFFFFFFFFFFFFFFFFFFFFFFFFFFFFFFFFFFFFFFFFFFFFFF
310
FFFFFFFFFFFFFFFFFFFFFFFFFFFFFFFFFFFFFFFFFFFFFFFFFFFFFFFFFFFFFFFF
310
FFFFFFFFFFFFFFFFFFFFFFFFFFFFFFFFFFFFFFFFFFFFFFFFFFFFFFFFFFFFFFFF
310
FFFFFFFFFFFFFFFFFFFFFFFFFFFFFFFFFFFFFFFFFFFFFFFFFFFFFFFFFFFFFFFF
310
FFFFFFFFFFFFFFFFFFFFFFFFFFFFFFFFFFFFFFFFFFFFFFFFFFFFFFFFFFFFFFFF
310
FFFFFFFFFFFFFFFFFFFFFFFFFFFFFFFFFFFFFFFFFFFFFFFFFFFFFFFFFFFFFFFF
310
FFFFFFFFFFFFFFFFFFFFFFFFFFFFFFFFFFFFFFFFFFFFFFFFFFFFFFFFFFFFFFFF
310
FFFFFFFFFFFFFFFFFFFFFFFFFFFFFFFFFFFFFFFFFFFFFFFFFFFFFFFFFFFFFFFF
310
FFFFFFFFFFFFFFFFFFFFFFFFFFFFFFFFFFFFFFFFFFFFFFFFFFFFFFFFFFFFFFFF
310
FFFFFFFFFFFFFFFFFFFFFFFFFFFFFFFFFFFFFFFFFFFFFFFFFFFFFFFFFFFFFFFF
310
FDFFFFFF2D000000FEFFFFFFFEFFFFFF05000000060000000700000008000000
310
090000000A0000000B0000000C0000000D0000000E0000000F00000010000000
310
1100000012000000130000001400000015000000160000001700000018000000
310
190000001A0000001B0000001C0000001D0000001E0000001F00000020000000
310
2100000022000000230000002400000025000000260000002700000028000000
310
290000002A0000002B0000002C000000FEFFFFFFFEFFFFFFFFFFFFFFFFFFFFFF
310
FFFFFFFFFFFFFFFFFFFFFFFFFFFFFFFFFFFFFFFFFFFFFFFFFFFFFFFFFFFFFFFF
310
FFFFFFFFFFFFFFFFFFFFFFFFFFFFFFFFFFFFFFFFFFFFFFFFFFFFFFFFFFFFFFFF
310
FFFFFFFFFFFFFFFFFFFFFFFFFFFFFFFFFFFFFFFFFFFFFFFFFFFFFFFFFFFFFFFF
310
FFFFFFFFFFFFFFFFFFFFFFFFFFFFFFFFFFFFFFFFFFFFFFFFFFFFFFFFFFFFFFFF
310
FFFFFFFFFFFFFFFFFFFFFFFFFFFFFFFFFFFFFFFFFFFFFFFFFFFFFFFFFFFFFFFF
310
FFFFFFFFFFFFFFFFFFFFFFFFFFFFFFFFFFFFFFFFFFFFFFFFFFFFFFFFFFFFFFFF
310
FFFFFFFFFFFFFFFFFFFFFFFFFFFFFFFFFFFFFFFFFFFFFFFFFFFFFFFFFFFFFFFF
310
FFFFFFFFFFFFFFFFFFFFFFFFFFFFFFFFFFFFFFFFFFFFFFFFFFFFFFFFFFFFFFFF
310
FFFFFFFFFFFFFFFFFFFFFFFFFFFFFFFFFFFFFFFFFFFFFFFFFFFFFFFFFFFFFFFF
310
FFFFFFFFFFFFFFFFFFFFFFFFFFFFFFFFFFFFFFFFFFFFFFFFFFFFFFFFFFFFFFFF
310
52006F006F007400200045006E00740072007900000000000000000000000000
310
0000000000000000000000000000000000000000000000000000000000000000
310
16000500FFFFFFFFFFFFFFFF020000000A00030000000000C000000000000046
310
00000000000000000000000050CAA16513D2C401030000000001000000000000
310
01004F006C006500000000000000000000000000000000000000000000000000
310
0000000000000000000000000000000000000000000000000000000000000000
310
0A000201FFFFFFFFFFFFFFFFFFFFFFFF00000000000000000000000000000000
310
0000000000000000000000000000000000000000000000001400000000000000
310
010043006F006D0070004F0062006A0000000000000000000000000000000000
310
0000000000000000000000000000000000000000000000000000000000000000
310
120002010100000003000000FFFFFFFF00000000000000000000000000000000
310
0000000000000000000000000000000000000000010000004D00000000000000
310
01004F006C006500310030004E00610074006900760065000000000000000000
310
0000000000000000000000000000000000000000000000000000000000000000
310
1A000201FFFFFFFF04000000FFFFFFFF00000000000000000000000000000000
310
000000000000000000000000000000000000000004000000C451000000000000
310
FEFFFFFF02000000FEFFFFFFFEFFFFFFFFFFFFFFFFFFFFFFFFFFFFFFFFFFFFFF
310
FFFFFFFFFFFFFFFFFFFFFFFFFFFFFFFFFFFFFFFFFFFFFFFFFFFFFFFFFFFFFFFF
310
FFFFFFFFFFFFFFFFFFFFFFFFFFFFFFFFFFFFFFFFFFFFFFFFFFFFFFFFFFFFFFFF
310
FFFFFFFFFFFFFFFFFFFFFFFFFFFFFFFFFFFFFFFFFFFFFFFFFFFFFFFFFFFFFFFF
310
FFFFFFFFFFFFFFFFFFFFFFFFFFFFFFFFFFFFFFFFFFFFFFFFFFFFFFFFFFFFFFFF
310
FFFFFFFFFFFFFFFFFFFFFFFFFFFFFFFFFFFFFFFFFFFFFFFFFFFFFFFFFFFFFFFF
310
FFFFFFFFFFFFFFFFFFFFFFFFFFFFFFFFFFFFFFFFFFFFFFFFFFFFFFFFFFFFFFFF
310
FFFFFFFFFFFFFFFFFFFFFFFFFFFFFFFFFFFFFFFFFFFFFFFFFFFFFFFFFFFFFFFF
310
FFFFFFFFFFFFFFFFFFFFFFFFFFFFFFFFFFFFFFFFFFFFFFFFFFFFFFFFFFFFFFFF
310
FFFFFFFFFFFFFFFFFFFFFFFFFFFFFFFFFFFFFFFFFFFFFFFFFFFFFFFFFFFFFFFF
310
FFFFFFFFFFFFFFFFFFFFFFFFFFFFFFFFFFFFFFFFFFFFFFFFFFFFFFFFFFFFFFFF
310
FFFFFFFFFFFFFFFFFFFFFFFFFFFFFFFFFFFFFFFFFFFFFFFFFFFFFFFFFFFFFFFF
310
FFFFFFFFFFFFFFFFFFFFFFFFFFFFFFFFFFFFFFFFFFFFFFFFFFFFFFFFFFFFFFFF
310
FFFFFFFFFFFFFFFFFFFFFFFFFFFFFFFFFFFFFFFFFFFFFFFFFFFFFFFFFFFFFFFF
310
FFFFFFFFFFFFFFFFFFFFFFFFFFFFFFFFFFFFFFFFFFFFFFFFFFFFFFFFFFFFFFFF
310
FFFFFFFFFFFFFFFFFFFFFFFFFFFFFFFFFFFFFFFFFFFFFFFFFFFFFFFFFFFFFFFF
310
0100000200000000000000000000000000000000505D17000000000001000000
310
03000600FF00FF00FF0000000000000000000000000000000000000000000000
310
0100FEFF030A0000FFFFFFFF0A00030000000000C00000000000004607000000
310
5042727573680007000000504272757368000700000050427275736800F439B2
310
7100000000000000000000000000000000000000000000000000000000000000
310
0000000000000000000000000000000000000000000000000000000000000000
310
010000000C000000000000000000000000000000000000000000000000000000
310
0000000000000000000000000000000000000000000000000000000000000000
310
0000000000000000000000000000000000000000000000000000000000000000
310
0000000000000000000000000000000000000000000000000000000000000000
310
0000000000000000000000000000000000000000000000000000000000000000
310
0000000000000000000000000000000000000000000000000000000000000000
310
0000000000000000000000000000000000000000000000000000000000000000
310
0000000000000000000000000000000000000000000000000000000000000000
310
0000000000000000000000000000000000000000000000000000000000000000
310
0000000000000000000000000000000000000000000000000000000000000000
310
C0510000424DA6510000000000003604000028000000EB000000540000000100
310
080000000000704D0000C40E0000C40E00000000000000000000FFFFFF00CCFF
310
FF0099FFFF0066FFFF0033FFFF0000FFFF00FFCCFF00CCCCFF0099CCFF0066CC
310
FF0033CCFF0000CCFF00FF99FF00CC99FF009999FF006699FF003399FF000099
310
FF00FF66FF00CC66FF009966FF006666FF003366FF000066FF00FF33FF00CC33
310
FF009933FF006633FF003333FF000033FF00FF00FF00CC00FF009900FF006600
310
FF003300FF000000FF00FFFFCC00CCFFCC0099FFCC0066FFCC0033FFCC0000FF
310
CC00FFCCCC00CCCCCC0099CCCC0066CCCC0033CCCC0000CCCC00FF99CC00CC99
310
CC009999CC006699CC003399CC000099CC00FF66CC00CC66CC009966CC006666
310
CC003366CC000066CC00FF33CC00CC33CC009933CC006633CC003333CC000033
310
CC00FF00CC00CC00CC009900CC006600CC003300CC000000CC00FFFF9900CCFF
310
990099FF990066FF990033FF990000FF9900FFCC9900CCCC990099CC990066CC
310
990033CC990000CC9900FF999900CC9999009999990066999900339999000099
310
9900FF669900CC66990099669900666699003366990000669900FF339900CC33
310
990099339900663399003333990000339900FF009900CC009900990099006600
310
99003300990000009900FFFF6600CCFF660099FF660066FF660033FF660000FF
310
6600FFCC6600CCCC660099CC660066CC660033CC660000CC6600FF996600CC99
310
660099996600669966003399660000996600FF666600CC666600996666006666
310
66003366660000666600FF336600CC3366009933660066336600333366000033
310
6600FF006600CC00660099006600660066003300660000006600FFFF3300CCFF
310
330099FF330066FF330033FF330000FF3300FFCC3300CCCC330099CC330066CC
310
330033CC330000CC3300FF993300CC9933009999330066993300339933000099
310
3300FF663300CC66330099663300666633003366330000663300FF333300CC33
310
330099333300663333003333330000333300FF003300CC003300990033006600
310
33003300330000003300FFFF0000CCFF000099FF000066FF000033FF000000FF
310
0000FFCC0000CCCC000099CC000066CC000033CC000000CC0000FF990000CC99
310
000099990000669900003399000000990000FF660000CC660000996600006666
310
00003366000000660000FF330000CC3300009933000066330000333300000033
310
0000FF000000CC00000099000000660000003300000000000000201F23002120
310
24002120230044850000438500004384000020202300FFFFFF00000000000000
310
0000000000000000000000000000000000000000000000000000000000000000
310
0000000000000000000000000000000000000000000000000000000000000000
310
0000000000000000000000000000000000000000000000000000000000000000
310
0000000000000000000000000000000000000000000000000000000000000000
310
0000000000000000000000000000000000000000000000000000000000000000
310
0000000000000000000000000000000000000000000000000000000000000000
310
0000000000000000000000000000000000000000000000000000000000000000
310
0000000000000000000000000000000000000000000000000000000000000000
310
0000000000000000000000000000000000000000000000000000000000000000
310
0000000000000000000000000000000000000000000000000000000000000000
310
0000000000000000000000000000000000000000000000000000000000000000
310
0000000000000000000000000000000000000000000000000000000000000000
310
0000000000000000000000000000000000000000000000000000000000000000
310
0000000000000000000000000000000000000000000000000000000000000000
310
0000000000000000000000000000000000000000000000000000000000000000
310
0000000000000000000000000000000000000000000000000000000000000000
310
0000000000000000000000000000000000000000000000000000000000000000
310
0000000000000000000000000000000000000000000000000000000000000000
310
0000000000000000000000000000000000000000000000000000000000000000
310
0000000000000000000000000000000000000000000000000000000000000000
310
0000000000000000000000000000000000000000000000000000000000000000
310
0000000000000000000000000000000000000000000000000000000000000000
310
0000000000000000000000000000000000000000000000000000000000000000
310
0000000000000000000000000000000000000000000000000000000000000000
310
0000000000000000000000000000000000000000000000000000000000000000
310
0000000000000000000000000000000000000000000000000000000000000000
310
0000000000000000000000000000000000000000000000000000000000000000
310
0000000000000000000000000000000000000000000000000000000000000000
310
0000000000000000000000000000000000000000000000000000000000000000
310
0000000000000000000000000000000000000000000000000000000000000000
310
0000000000000000000000000000000000000000000000000000000000000000
310
0000000000000000000000000000000000000000000000000000000000000000
310
0000000000000000000000000000000000000000000000000000000000000000
310
0000000000000000000000000000000000000000000000000000000000000000
310
0000000000000000000000000000000000000000000000000000000000000000
310
0000000000000000000000000000000000000000000000000000000000000000
310
0000000000000000000000000000000000000000000000000000000000000000
310
0000000000000000000000000000000000000000000000000000000000000000
310
0000000000000000000000000000000000000000000000000000000000000000
310
0000000000000000000000000000000000000000000000000000000000000000
310
0000000000000000000000000000000000000000000000000000000000000000
310
0000000000000000000000000000000000000000000000000000000000000000
310
0000000000000000000000000000000000000000000000000000000000000000
310
0000000000000000000000000000000000000000000000000000000000000000
310
0000000000000000000000000000000000000000000000000000000000000000
310
0000000000000000000000000000000000000000000000000000000000000000
310
0000000000000000000000000000000000000000000000000000000000000000
310
0000000000000000000000000000000000000000000000000000000000000000
310
0000000000000000000000000000000000000000000000000000000000000000
310
0000000000000000000000000000000000000000000000000000000000000000
310
0000000000000000000000000000000000000000000000000000000000000000
310
0000000000000000000000000000000000000000000000000000000000000000
310
0000000000000000000000000000000000000000000000000000000000000000
310
0000000000000000000000000000000000000000000000000000000000000000
310
0000000000000000000000000000000000000000000000000000000000000000
310
0000000000000000000000000000000000000000000000000000000000000000
310
0000000000000000000000000000000000000000000000000000000000000000
310
0000000000000000000000000000000000000000000000000000000000000000
310
0000000000000000000000000000000000000000000000000000000000000000
310
0000000000000000000000000000000000000000000000000000000000000000
310
0000000000000000000000000000000000000000000000000000000000000000
310
0000000000000000000000000000000000000000000000000000000000000000
310
0000000000000000000000000000000000000000000000000000000000000000
310
000000DBDBDCDBDCDCDBDCDBDBDBDCDCDBDCDBDBDBDBDBDCDBDBDBDBDCDBDBDD
310
DBDCDBDBDBDBDCDBDCDCDCDBDBDCDBDBDCDC0000000000000000000000000000
310
00000000000000000000000000000000000000000000000000000000DADAD8D8
310
D8000000000000DAD8D8D8D8DADED8DEDA000000DADEDAD8000000D8D8D8DAD8
310
000000DEDADAD8000000D8D8D8D8D8000000D8D8D8D8D800000000D8D8D80000
310
0000DAD8DADED800000000000000000000000000000000000000000000000000
310
0000000000000000000000000000000000000000000000000000000000000000
310
000000000000000000000000000000DBDCDBDBDBDBDCDDDBDBDBDDDCDBDCDCDC
310
DCDDDDDCDDDDDBDCDCDBDCDBDBDBDBDDDBDBDDDBDBDBDBDDDCDCDBDBDBDCDB00
310
0000000000000000000000000000000000000000000000000000000000000000
310
0000000000000000D8D8DAD8DA000000000000D8D8D8D8D8DAD9DED8DE000000
310
DED8DED8000000D8D8D8D8DA000000D8D8D8D8000000DADAD8DED8000000D8D8
310
D8D8D800000000D9DADE000000D8D8D8D8D9D800000000000000000000000000
310
0000000000000000000000000000000000000000000000000000000000000000
310
00000000000000000000000000000000000000000000000000000000DCDBDDDB
310
DCDCDBDBDCDBDCDBDBDBDBDBDBDBDCDBDBDCDBDBDCDDDBDCDBDBDBDBDBDCDBDC
310
DCDCDDDCDBDCDCDCDBDCDB000000000000000000000000000000000000000000
310
0000000000000000000000000000000000000000D8D8DED8D8000000000000D9
310
DED8D8000000000000000000D8D8D8DA0000D8DAD8D8D800000000DAD8DAD800
310
00D8D8D8D8DE00000000D8DED8D8DA00000000DADAD8000000D8D8DAD8DADA00
310
0000000000000000000000000000000000000000000000000000000000000000
310
0000000000000000000000000000000000000000000000000000000000000000
310
0000000000000000DCDBDBDBDBDBDBDBDCDCDCDBDBDBDCDDDBDCDBDBDBDBDCDB
310
DBDCDBDDDCDBDCDBDBDCDCDCDCDDDCDCDCDCDDDCDBDCDBDB0000000000000000
310
0000000000000000000000000000000000000000000000000000000000000000
310
D8D8DED8D8000000000000D8D8D8D8000000000000000000DED8D8D800DEDED8
310
D8D80000000000D8DAD8D900DAD8DEDED80000000000D8D8DED8D800000000D8
310
D8D80000D8D8D8D8D8DAD9000000000000000000000000000000000000000000
310
0000000000000000000000000000000000000000000000000000000000000000
310
000000000000000000000000000000000000000000DCDCDBDBDCDBDCDBDCDBDC
310
DCDBDCDCDBDCDBDDDDDBDDDCDBDBDBDCDCDCDBDDDCDBDBDBDBDBDDDBDBDBDCDC
310
DBDBDBDB00000000000000000000000000000000000000000000000000000000
310
000000000000000000000000DAD8D8D8D8000000000000D8DED9D90000000000
310
00000000D8D8D8DAD8D8D8DED8000000000000D8DED8D8D8D8D8D8D800000000
310
0000D8D8DEDAD800000000D8DEDA0000D8DED8DED8D8D8000000000000000000
310
0000000000000000000000000000000000000000000000000000000000000000
310
0000000000000000000000000000000000000000000000000000000000000000
310
00DBDCDBDBDBDBDBDBDBDBDBDBDCDCDCDBDBDBDCDCDCDBDBDBDCDCDCDBDBDBDB
310
DCDCDCDBDBDCDCDCDCDDDCDBDBDBDBDB00000000000000000000000000000000
310
000000000000000000000000000000000000000000000000D8DAD8D8D8000000
310
000000D8DEDED9D8D8D8D8DE00000000D8D8D8DED8D8D8D800000000000000D8
310
DED8D8DAD9DAD900000000000000D8D8D8D8DE00000000DED8DE00D8D8D8D800
310
DED8DA0000000000000000000000000000000000000000000000000000000000
310
0000000000000000000000000000000000000000000000000000000000000000
310
00000000000000000000000000DDDBDCDBDBDBDBDBDDDBDCDBDBDCDCDCDDDBDB
310
DBDBDCDBDBDCDBDBDCDCDCDBDCDDDCDBDBDBDBDBDCDBDBDCDCDCDBDBDC000000
310
0000000000000000000000000000000000000000000000000000000000000000
310
00000000D8D8D8D8D8000000000000DAD8D8DEDADADEDEDA00000000D8DAD8DE
310
D8DED8D800000000000000D8D8D8D8D8D8D8DA00000000000000D8D8DAD8D800
310
000000D8D8D800DAD8D8DE00DADAD80000000000000000000000000000000000
310
0000000000000000000000000000000000000000000000000000000000000000
310
0000000000000000000000000000000000000000000000000000DCDCDCDCDDDC
310
DCDBDBDDDCDCDBDCDCDBDBDBDCDCDCDCDBDBDCDBDBDCDBDBDCDBDCDCDBDCDBDC
310
DCDBDBDBDBDDDCDCDC0000000000000000000000000000000000000000000000
310
00000000000000000000000000000000D8D9D8DAD8000000000000D8DED8D800
310
0000000000000000DEDAD8DEDED8DADAD8000000000000D8D9DED8DAD8D8D8D8
310
000000000000DED8D8D8D800000000DAD8D8DED8D8D80000D8D8D80000000000
310
0000000000000000000000000000000000000000000000000000000000000000
310
0000000000000000000000000000000000000000000000000000000000000000
310
000000000000DCDDDBDCDDDBDBDBDCDCDDDCDBDCDCDCDCDBDBDCDDDBDCDBDBDB
310
DBDCDCDCDCDBDDDCDBDCDBDDDBDCDDDBDBDBDCDCDCDB00000000000000000000
310
00000000000000000000000000000000000000000000000000000000D8D8D8DA
310
DE000000000000DADAD8D8000000000000000000DED8DAD800D8D8DEDA000000
310
000000D8D8D8D800D8D8D8DA000000000000DEDED8D8D800000000D8D8D8D8D8
310
DE000000DED8DE00000000000000000000000000000000000000000000000000
310
0000000000000000000000000000000000000000000000000000000000000000
310
00000000000000000000000000000000000000DCDCDCDCDCDBDCDBDCDCDCDCDB
310
DBDBDBDBDBDCDBDBDDDCDBDBDBDBDBDDDBDCDCDBDBDDDBDCDCDBDCDBDBDDDBDC
310
DBDC000000000000000000000000000000000000000000000000000000000000
310
000000000000DED8DEDAD8D8D8D8D800000000D8D8D8D8D8DED8DAD800000000
310
DED8DAD80000D8DED8D80000000000D8D8D8D80000D9D8D8D80000000000D8DA
310
D8D8D800000000D8DEDAD8DEDA000000DEDADA00000000000000000000000000
310
0000000000000000000000000000000000000000000000000000000000000000
310
00000000000000000000000000000000000000000000000000000000000000DB
310
DCDCDBDCDCDBDDDCDBDBDBDDDBDBDCDBDBDCDCDBDBDBDCDBDBDBDBDDDBDCDCDB
310
DCDDDBDBDDDBDBDBDCDBDBDBDBDB000000000000000000000000000000000000
310
0000000000000000000000000000000000D8D8D8D8D8D8D8D8D8D8DA000000DA
310
DADAD8D8DED8DED8D9000000D8D8D8D8000000D8D9DEDA00000000DED8DED800
310
0000DADAD8DE00000000D8DEDAD8D800000000DED8D8D8D800000000DAD8DE00
310
0000000000000000000000000000000000000000000000000000000000000000
310
0000000000000000000000000000000000000000000000000000000000000000
310
000000000000000000000000DBDCDBDBDCDBDDDBDBDBDBDBDCDBDBDBDBDBDCDB
310
DBDDDCDBDBDBDCDB000000000000000000000000000000000000000000000000
310
0000000000000000000000000000000000000000000000000000000000D8D8D8
310
D8D8D8D8DAD8D8D8000000D8DAD8DED8DEDADAD8D8000000DED8D8D9000000D8
310
D8D8DED8000000D8D8D9D8000000DED8D8D8D8000000D8DADAD9D800000000D8
310
D8D8D8D800000000DED8D8000000000000000000000000000000000000000000
310
0000000000000000000000000000000000000000000000000000000000000000
310
000000000000000000000000000000000000000000000000DBDBDBDCDCDCDCDB
310
DDDCDCDCDCDBDBDBDBDBDBDBDBDBDCDBDCDBDDDC000000000000000000000000
310
0000000000000000000000000000000000000000000000000000000000000000
310
0000000000000000000000000000000000000000000000000000000000000000
310
0000000000000000000000000000000000000000000000000000000000000000
310
0000000000000000000000000000000000000000000000000000000000000000
310
0000000000000000000000000000000000000000000000000000000000000000
310
0000000000000000000000000000000000000000000000000000000000000000
310
0000000000DBDCDCDBDBDBDBDBDCDCDBDCDBDBDCDCDDDBDBDCDBDBDBDCDCDBDC
310
DB00000000000000000000000000000000000000000000000000000000000000
310
0000000000000000000000000000000000000000000000000000000000000000
310
0000000000000000000000000000000000000000000000000000000000000000
310
0000000000000000000000000000000000000000000000000000000000000000
310
0000000000000000000000000000000000000000000000000000000000000000
310
0000000000000000000000000000000000000000000000000000000000000000
310
0000000000000000000000000000000000DCDDDBDBDCDBDCDBDBDDDBDBDBDDDC
310
DCDBDBDBDCDBDCDCDBDCDCDBDC00000000000000000000000000000000000000
310
0000000000000000000000000000000000000000000000000000000000000000
310
0000000000000000000000000000000000000000000000000000000000000000
310
0000000000000000000000000000000000000000000000000000000000000000
310
0000000000000000000000000000000000000000000000000000000000000000
310
0000000000000000000000000000000000000000000000000000000000000000
310
0000000000000000000000000000000000000000000000000000000000DCDBDC
310
DCDBDCDBDBDBDCDBDCDBDDDBDCDBDBDBDCDBDBDCDCDBDCDCDCDB000000000000
310
0000000000000000000000000000000000000000000000000000000000000000
310
0000000000000000000000000000000000000000000000000000000000000000
310
0000000000000000000000000000000000000000000000000000000000000000
310
0000000000000000000000000000000000000000000000000000000000000000
310
0000000000000000000000000000000000000000000000000000000000000000
310
0000000000000000000000000000000000000000000000000000000000000000
310
00000000000000000000DCDBDCDCDBDDDCDBDBDCDBDCDBDBDCDCDCDCDBDBDBDB
310
DDDBDCDCDBDB0000000000000000000000000000000000000000000000000000
310
0000000000000000000000000000000000000000000000000000000000000000
310
0000000000000000000000000000000000000000000000000000000000000000
310
0000000000000000000000000000000000000000000000000000000000000000
310
0000000000000000000000000000000000000000000000000000000000000000
310
0000000000000000000000000000000000000000000000000000000000000000
310
00000000000000000000000000000000000000000000DBDCDBDCDCDBDBDBDCDC
310
DBDBDCDCDBDBDCDBDBDBDBDBDCDCDCDBDBDB0000000000000000000000000000
310
0000000000000000000000000000000000000000000000000000000000000000
310
0000000000000000000000000000000000000000000000000000000000000000
310
0000000000000000000000000000000000000000000000000000000000000000
310
0000000000000000000000000000000000000000000000000000000000000000
310
0000000000000000000000000000000000000000000000000000000000000000
310
0000000000000000000000000000000000000000000000000000000000000000
310
000000DBDBDBDBDBDCDBDBDCDBDBDCDBDBDCDBDCDBDBDBDCDCDCDBDCDCDBDD00
310
000000D7D7D7D7D7D7D7D7D7D7D7D7D7D7D7D7D7D7D7D7D7D7D7D7D7D7D7D7D7
310
D7D7D7D7D7D7D7D7D7D7D7D7D7D7D7D7D7D7D7D7D7D7D7D7D7D7D7D7D7D7D7D7
310
D7D7D7D7D7D7D7D7D7D7D7D7D7D7D7D7D7D7D7D7D7D7D7D7D7D7D7D7D7D7D7D7
310
D7D7D7D7D7D7D7D7D7D7D7D7D7D7D7D7D7D7D7D7D7D7D7D7D7D7D7D7D7D7D7D7
310
D7D7D7D7D7D7D7D7D7D7D7D7D7D7D7D7D7D7D7D7D7D7D7D7D7D7D7D7D7D7D7D7
310
D7D7D7D7D7D7D7D7D7D7D7D7D7D7000000000000000000000000000000000000
310
000000000000000000000000000000DCDBDCDBDCDBDDDCDBDBDBDCDBDBDDDBDB
310
DDDCDCDBDDDBDCDBDDDCDB00000000D7D7D7D7D7D7D7D7D7D7D7D7D7D7D7D7D7
310
D7D7D7D7D7D7D7D7D7D7D7D7D7D7D7D7D7D7D7D7D7D7D7D7D7D7D7D7D7D7D7D7
310
D7D7D7D7D7D7D7D7D7D7D7D7D7D7D7D7D7D7D7D7D7D7D7D7D7D7D7D7D7D7D7D7
310
D7D7D7D7D7D7D7D7D7D7D7D7D7D7D7D7D7D7D7D7D7D7D7D7D7D7D7D7D7D7D7D7
310
D7D7D7D7D7D7D7D7D7D7D7D7D7D7D7D7D7D7D7D7D7D7D7D7D7D7D7D7D7D7D7D7
310
D7D7D7D7D7D7D7D7D7D7D7D7D7D7D7D7D7D7D7D7D7D7D7D7D7D7000000000000
310
00000000000000000000000000000000000000000000000000000000DBDBDBDD
310
DCDBDBDDDBDBDBDBDCDCDBDBDCDCDBDBDCDCDBDBDBDCDBDB0000000000000000
310
0000000000000000000000000000000000000000000000000000000000000000
310
0000000000000000000000000000000000000000000000000000000000000000
310
0000000000000000000000000000000000000000000000000000000000000000
310
0000000000000000000000000000000000000000000000000000000000000000
310
0000000000000000000000000000000000000000000000000000000000000000
310
0000000000000000000000000000000000000000000000000000000000000000
310
0000000000000000DCDCDBDCDCDBDDDBDCDBDBDBDCDBDCDCDBDBDBDCDCDBDBDB
310
DCDCDBDC00000000000000000000000000000000000000000000000000000000
310
0000000000000000000000000000000000000000000000000000000000000000
310
0000000000000000000000000000000000000000000000000000000000000000
310
0000000000000000000000000000000000000000000000000000000000000000
310
0000000000000000000000000000000000000000000000000000000000000000
310
0000000000000000000000000000000000000000000000000000000000000000
310
0000000000000000000000000000000000000000DBDBDBDBDBDCDDDCDBDBDBDB
310
DCDCDBDCDBDBDCDCDBDCDBDCDBDCDCDBDC000000000000000000000000000000
310
0000000000000000000000000000000000000000000000000000000000000000
310
0000000000000000000000000000000000000000000000000000000000000000
310
0000000000000000000000000000000000000000000000000000000000000000
310
0000000000000000000000000000000000000000000000000000000000000000
310
0000000000000000000000000000000000000000000000000000000000000000
310
0000000000000000000000000000000000000000000000000000000000000000
310
00DCDBDBDBDCDCDBDCDCDBDCDCDBDCDCDCDCDCDBDBDCDBDDDCDBDBDCDC000000
310
0000000000000000000000000000000000000000000000000000000000000000
310
0000000000000000000000000000000000000000000000000000000000000000
310
0000000000000000000000000000000000000000000000000000000000000000
310
0000000000000000000000000000000000000000000000000000000000000000
310
0000000000000000000000000000000000000000000000000000000000000000
310
0000000000000000000000000000000000000000000000000000000000000000
310
00000000000000000000000000DCDBDBDBDDDBDCDCDCDBDCDBDBDBDBDBDBDBDB
310
DBDCDCDBDBDDDBDBDC0000000000000000000000000000000000000000000000
310
0000000000000000000000000000000000000000000000000000000000000000
310
0000000000000000000000000000000000000000000000000000000000000000
310
0000000000000000000000000000000000000000000000000000000000000000
310
0000000000000000000000000000000000000000000000000000000000000000
310
0000000000000000000000000000000000000000000000000000000000000000
310
0000000000000000000000000000000000000000000000000000DCDCDCDCDCDC
310
DBDBDBDBDBDBDBDBDBDBDCDBDBDCDCDDDBDCDCDCDB0000000000000000000000
310
0000000000000000000000000000000000000000000000000000000000000000
310
0000000000000000000000000000000000000000000000000000000000000000
310
0000000000000000000000000000000000000000000000000000000000000000
310
000000000000000000000000000000000000000000000000000000000000D8DE
310
D8D8D8DE00000000000000000000000000000000000000000000000000000000
310
0000000000000000000000000000000000000000000000000000000000000000
310
000000000000DBDCDBDBDBDBDBDBDBDBDBDCDDDCDCDBDBDBDBDBDBDBDCDBDBDC
310
DC00D8D8D8D8DEDEDED8D8D8DAD8D8DADAD8D8D8D8D8DAD8D8D8DAD8D9D80000
310
0000000000000000D8D8D8DAD8D8DAD8D80000DED9D8D8DED8D8D8DE00000000
310
000000000000DAD8DED8DED8D8D8D800000000000000000000D8DADAD8D8DED8
310
D8D80000D8D8DADEDEDED8D8D8D80000000000DAD8D8D8D8DAD8D8D800000000
310
0000000000D8D8D8D8DED8D8D8D8DED8D8D9DADED80000000000DAD8D8D8D8D8
310
DAD8DADED8D8D8D8DAD8D8D8D8D8D80000000000000000000000000000000000
310
00000000000000000000000000000000000000DBDBDBDCDCDBDCDBDBDBDCDBDC
310
DCDCDBDBDBDBDBDCDBDCDBDCDB00D8D9DADED8DEDAD8D8D8D8D8DAD8D8D8DEDE
310
DEDEDED8D8DAD8D8DADE000000000000000000D8D8DED8DED8D8D8D8DE0000D8
310
D8D8D8DED8D8D8D800000000000000000000DEDED8D8DADAD8DADA0000000000
310
00000000D8D8DEDADED8D8DEDADE0000D8DADAD9D8D9D8D8D8D800000000D8D8
310
D8DAD8D8D8D8D8D800000000000000DAD8DAD8D8D8DADAD8D8D8DED8D8DEDEDE
310
D8D800000000DED8DEDED8DAD8D8D8D8D8D8D8D8D8DED8D8D9DEDE0000000000
310
00000000000000000000000000000000000000000000000000000000000000DB
310
DBDBDBDBDCDBDCDBDBDCDCDCDBDCDDDDDCDBDCDBDCDCDCDDDB00D8D8DED8D8D8
310
DADEDED8D8DED8D8D8D8D8DAD800D8DED8D8DED8D8DED80000000000000000D8
310
D8D8DEDED8D8DED8000000D8D8D8D8D8DED8D8D80000000000000000000000D8
310
DEDADED8D8D8DED80000000000000000D8D8D8DAD8D8D8D8DA000000D8D8DEDA
310
DED8DED8DADE00000000DEDADED8D8DED8D8DE00000000000000D8DED8D8DEDE
310
D8D8D8D8D8D8DADAD8D8D8D8D8D800000000D8DED8D8D8D8D8DED8DAD9D8DEDA
310
D8D8D8DED8D8D800000000000000000000000000000000000000000000000000
310
000000000000000000000000DBDCDBDCDCDBDBDBDCDBDBDBDBDBDCDCDCDCDCDB
310
DCDCDCDBDB00D8D8DEDED8DAD8D8D8D9D8D8D8D8D8D8D8DED800D8D8DEDED8D8
310
D8D8D800000000000000DAD8D8D8DEDED8DEDED8000000DAD8DED8D8D8D8D8D8
310
0000000000000000000000D8D8DED8DED8D8D8D800000000000000D8D8D8D8D8
310
D9D8D9DAD8000000D8D8D8D8DAD8DED8D8D800000000D8D8DAD8DAD8D8DAD800
310
0000000000D8D8DED8D8DED8DAD8D8DEDED8DAD8D8D8D8D8DADE00000000D8D8
310
D8D8DEDEDED8D8D8D8D8D8DED8D8D8D8D8D8DA00000000000000000000000000
310
000000000000000000000000000000000000000000000000DBDCDCDBDBDBDCDC
310
DBDDDCDBDCDBDCDBDDDBDCDBDBDCDCDBDD00DAD8D8DED8D8D8D9D8D8D8D8D8DE
310
DAD8D8D8D80000D8D8D8D9D8D8D8D8D8DADAD8D8D8D8DED8D8D8D8D8D8DEDA00
310
000000D8DAD8D8D8D8D8D8DE000000000000000000000000D8D8DEDADADAD8D8
310
DADEDAD8D8D8DED8D8D8D8DAD8DED8D800000000D9D8D8D8D8D8D8D8D8D80000
310
0000D9D8D8D8DADED8D8DE0000000000DEDAD8D8D8D8D8D8D8D9DED8D8D8D8D9
310
DADAD8D8D9DE00000000DEDED8D8DED8D8D8D8D9D8D8D8D8DEDED8DEDED80000
310
0000000000000000000000000000000000000000000000000000000000000000
310
00000000DBDCDCDBDCDBDBDDDBDCDCDCDCDBDBDBDCDCDBDCDBDBDBDBDB00D8D8
310
D8DEDED8D8D8D8D8D8D8DED8D8D8DED8D80000D8D8D8D8D8D8DEDED8D8D8D8DA
310
D8D8DAD8D8D8DADAD8DAD800000000DADAD8D8DED8D8DADA0000000000000000
310
00000000D8D8D8D8D8D8D8DAD8DADEDADEDED8D8D8D8D8D8D8D8DED800000000
310
D8D8DADEDED8DED8D8D8000000DAD8D8D8DED8D8D8D8D800000000D8D8D8D8DE
310
DED8DAD8DA0000000000DADADEDEDAD8D8D800000000D8D8D8DED9DAD8D8D900
310
0000000000000000000000000000000000000000000000000000000000000000
310
0000000000000000000000000000000000DCDCDBDBDBDBDBDBDBDBDCDBDCDBDC
310
DBDBDCDCDBDBDCDCDC00DEDADAD9D8DADAD8D8DA000000000000000000000000
310
DED8DEDEDED8D8DADED8DED8D8DED8DAD8D8D8DED8DE0000000000D8DEDED8D9
310
D8D8DEDED8DAD8D8D8D8DEDED8D8000000DADEDED8D9DED8D8D8D8DAD8D8D8D8
310
D8DED8D8D8D8DA0000000000D8D8DAD8D8D8D8D9DADAD8D8D8D8D8D8DADED8D8
310
D8D80000000000DAD8DEDED8DED8D8D8000000000000DAD8DED8D8DED8DA0000
310
0000D9DED8DEDAD8D8D8D8000000000000000000000000000000000000000000
310
0000000000000000000000000000000000000000000000000000000000DDDBDB
310
DCDBDCDBDBDCDBDBDCDBDBDCDBDCDBDCDBDCDDDBDB00D8D8DED8D9DEDADED8D8
310
000000000000000000000000D8D8D8D8D8D8D8DEDAD8D8D8D8D8D8D8D8D8D8D8
310
DED80000000000D8D8D8DED8D8D9DED8D8D8D8DAD8DED8DEDADED80000D8D8D8
310
DEDED8DAD8DEDEDED8DAD8D8D8D8D8D8D8D8DA0000000000D8D8D8D8DED9D8D8
310
DED8D8D8DEDAD8D8D8D8D9DED8000000000000D8DAD8D8D8D8DEDED800000000
310
D8D8DED8D8D8D8D8D8D800000000DED8D9D8DAD8DADEDED8D9D8DADEDAD8D8D8
310
DEDA000000000000000000000000000000000000000000000000000000000000
310
00000000000000000000DBDBDBDBDBDBDCDCDBDBDBDBDCDCDDDBDCDCDBDDDBDC
310
DB00D9D8D8D8D8D8D8D8D8D8000000000000000000000000D8D8D8D8D8D8D8D8
310
DAD8D8DED8D8D8D8D8D8D8D8DED80000000000DED8D8D8D8D8D9DADEDEDED8DE
310
DED8D8D8D8DED80000D9D9D8DEDED8D8D8D8D8D8D8D8DED9DADED8D8D8D8D800
310
00000000D8D8DED8DADED8D9DADAD8D8DED8D8D8DAD8DED8000000000000D8DA
310
DED8D8D8D8D8D8D800000000D8D8D8D8D8DEDED8D9D800000000DEDED8DED8D8
310
D9D8D8DEDADED8D8D8D8D8D8D8D8000000000000000000000000000000000000
310
00000000000000000000000000000000000000000000DCDBDBDBDBDBDBDCDBDD
310
DCDCDBDCDBDDDBDCDCDCDCDCDB00D8D8D8D8D8D8D8D8D8DA0000000000000000
310
0000000000DED8DAD8D8D8D8D800000000D8D8DED8D8D8D8D9000000000000D8
310
D8DED8DEDED8D8D8DED8D8DED8D8D8DED8DED8000000DED8D9D8D8DED8D90000
310
0000D8D8D8D8D8DEDED8000000000000DEDADED8D8D8DED8D8DEDED8DED8D8DE
310
D8D8D8D8D80000000000D8D8DEDAD8DAD8D8DED800000000DEDAD8D8DAD8DED8
310
DED800000000D8D8D8D8DAD8DED8D8D8D8D8DED8D8D8D8DEDADA000000000000
310
0000000000000000000000000000000000000000000000000000000000000000
310
000000DBDBDBDBDCDBDBDCDBDBDBDCDBDBDCDDDBDCDBDBDBDB00D8D8D8D8DADE
310
D8DEDAD800000000000000000000000000D8D8D8DED8D8D9DE000000DAD8D8D8
310
D8DED8D9D8000000000000D8DAD8D8D8D8DEDED8D8D8DED9D8D8D8D9D8DED800
310
0000D9D8D8DAD8DAD8DE000000D8D8D8D8D8D8D8D8DA000000000000DED8DAD8
310
D8D8D8D8D8D8DED8D8D8D8D8D8D8D8DAD8D800000000D8D8D8D8D8DEDAD8DED8
310
00000000D8D8D8D8D8DAD8D8D80000000000D8DED8DAD8D8DAD8D8D8DADAD8D8
310
D8D8D8D8D8D80000000000000000000000000000000000000000000000000000
310
000000000000000000000000000000DCDCDBDCDBDBDBDBDCDCDBDBDBDBDCDBDC
310
DDDCDBDBDB00D8D8DED8D8D8D8D8D8D80000000000000000000000000000D8D8
310
DED8DEDEDED80000DED8DED8D8D8DEDE00000000000000D8DED8D8DADADEDEDA
310
000000000000000000000000000000D8D9D8D8D8DADAD80000D9D9D8D8D8DED8
310
D800000000000000D8D8DED8D8D8D8D8DE0000000000DAD8D8DAD8DED8D8D800
310
0000D8D8D8DADAD8D8DAD8D8000000000000000000000000000000000000D8D8
310
D8D8D8D8D8D8D8D9DAD8D8D8DEDED8D8D8D80000000000000000000000000000
310
00000000000000000000000000000000000000000000000000000000DDDCDCDB
310
DBDBDDDCDCDCDBDCDBDBDCDBDCDDDBDBDB00D8D8D8DED8DEDEDAD8DA00000000
310
00000000000000000000D8DED9D8D8D8D8D90000DAD9DEDEDAD8D8D800000000
310
000000D8DED9D8DAD8DADADA000000000000000000000000000000D8D8D8D8D8
310
D8D8DE0000D8DED8D8D8D8D8D800000000000000D8D8D8D8D8D8DAD9D8000000
310
0000D9DADED8D8DED8DEDE00000000DAD8DAD8D8D8D9DAD9D800000000000000
310
00000000000000000000D8DEDAD8DED8D8DED800000000000000000000000000
310
0000000000000000000000000000000000000000000000000000000000000000
310
0000000000000000DCDCDCDDDBDBDBDCDCDBDBDBDDDBDCDCDBDDDBDDDD00D8D8
310
DEDAD9D8DEDEDEDA0000000000000000000000000000D8D8D8DEDADED8D800DA
310
D8D8D8D8D8D8D80000000000000000D8D8DAD8D8D8D8DAD80000000000000000
310
00000000000000D9D8D8DEDAD9DED8DAD8D8D8D8DADED9D80000000000000000
310
D8D8D8D8D8DED8D8D80000000000D8D9D8D8D8D8DED8DED8000000DED8DED8D8
310
D8D8D8D8D8D800000000000000000000D80000000000D8DAD8D8D8D9DAD8D800
310
0000000000000000000000000000000000000000000000000000000000000000
310
0000000000000000000000000000000000000000DBDCDCDBDBDCDBDCDBDCDDDC
310
DBDCDCDBDDDBDBDBDB00DEDAD8DED8D8DED8D8D8000000000000000000000000
310
000000DAD8DED8D8D8DEDEDAD8DAD8D8D8D9DE0000000000000000D8DADADEDA
310
DED8D8D9D8D8D8DAD8DADAD8D8DED80000000000D8DED8D8DAD8DADAD8D8DAD8
310
D8D8D8DE0000000000000000D8DADEDED8D8D8D8DED8DED8D8D8D8D8D8D8D9DA
310
DAD8D8DE00000000D8D8D8D8D8D8DED8D8DAD8D8DED8D8D8D8DED8D8D8000000
310
0000D8D8D8D8D9DADAD8DAD8D8D8D8DEDAD8D9D8D8D800000000000000000000
310
0000000000000000000000000000000000000000000000000000000000000000
310
00DBDBDDDBDCDBDBDCDBDDDBDBDBDBDBDDDBDCDCDB00D8D8DAD8DED8DED8D9DE
310
000000000000000000000000000000D8D8D8D8D8DAD8D8D8D8D8D8D8D8D8DE00
310
00000000000000D8DED8DEDAD8D9D8D8D8DEDED8D8D8D8DADED8D80000000000
310
D8D8D8D8D8D8D8D8DAD8D8DADED8D8DE0000000000000000D8D8D8DED8D8D8DE
310
D8D8D8D8D8D8D8D8DAD8D8D8DED8D8000000000000D8D8D8D8D8DED8D8D8D9D8
310
D8D8D8DAD8D8D9D8DE0000000000DED8DED8D8D8D8D8D8D8D8D8D8D8DED8D8D8
310
D8D8000000000000000000000000000000000000000000000000000000000000
310
00000000000000000000000000DBDBDBDBDCDBDBDBDBDBDBDBDCDBDDDBDCDBDB
310
DC00D8D8D8D8D8D8DED8D8D800000000000000000000000000000000D8DAD8DA
310
DAD8D8D8D8D8D8D8D8D8000000000000000000DED8D8D8D8DAD8D8D8DED8D8D8
310
DED8D8D8D8D8D8000000000000DEDED8D8D8DADAD9DEDEDED8D8DE0000000000
310
00000000D8D8D8D8D8DAD9D8DED8DAD9D8D8D8D8D8D8D8DED8D8D80000000000
310
0000D8D8D8DEDED8D8DED8D8D8D8D8D8DAD8D8D8D80000000000D8D9DADED8D8
310
D8D8DAD8D8D8D8D8DEDAD8D8D8D8000000000000000000000000000000000000
310
0000000000000000000000000000000000000000000000000000DCDCDCDBDBDC
310
DBDBDBDBDCDBDBDCDBDCDBDBDB00DED8D8D8D8D8D8D8D8D80000000000000000
310
0000000000000000D8D8D8D9D8D9DADEDAD8D8D8D8D8000000000000000000D8
310
DEDADAD8D8D9D8D8D9D8D8D8D8D8D8DEDAD8DA000000000000DAD9D8D8D8D8D8
310
D8DAD8DAD8DED8000000000000000000D8D8DED8D8D8DED8DED8D8DADADEDAD8
310
DAD8D8D8D8D8000000000000000000DAD8D8D8D8D8DED8D8D8D8D8DADEDADAD8
310
DA0000000000D8D8D8D8D9D9D8D8D8DED8D8DEDED8D8D8DED8D8000000000000
310
0000000000000000000000000000000000000000000000000000000000000000
310
000000000000DCDCDBDBDCDDDBDBDBDCDBDBDCDBDBDBDCDDDB00D8DED8D8D8D8
310
D8D8D8D80000000000000000000000000000000000D8D8D8D9DED8D8D8DAD8D8
310
DA00000000000000000000D8D8D8D8D8DED8DEDADADAD8DED8D8DED8DED8D800
310
000000000000D8D8D8DED8D8D8D8D8D8D8D800000000000000000000DED8D8DA
310
D9D8DED8D8D8D8D8D8DED8D8D8D8D8000000000000000000000000000000D8D8
310
D8DAD8D8D8D8DEDAD8D8D8DED80000000000D8D8D8D8DEDED8D8D8DEDAD8D8D8
310
DED8DED8D8D80000000000000000000000000000000000000000000000000000
310
00000000000000000000000000000000000000DDDBDBDCDBDBDCDBDBDBDDDCDB
310
DBDBDDDCDB000000000000000000000000000000000000000000000000000000
310
0000000000000000000000000000000000000000000000000000000000000000
310
0000000000000000000000000000000000000000000000000000000000000000
310
0000000000000000000000000000000000000000000000000000000000000000
310
0000000000000000000000000000000000000000000000000000000000000000
310
0000000000000000000000000000000000000000000000000000000000000000
310
00000000000000000000000000000000000000000000000000000000000000DC
310
DCDBDBDBDDDCDCDCDBDCDBDCDBDCDCDCDBDCDBDBDBDBDBDBDBDBDD0000000000
310
0000000000000000000000000000000000000000000000000000000000000000
310
0000000000000000000000000000000000000000000000000000000000000000
310
0000000000000000000000000000000000000000000000000000000000000000
310
0000000000000000000000000000000000000000000000000000000000000000
310
0000000000000000000000000000000000000000000000000000000000000000
310
0000000000000000000000000000000000000000000000000000000000000000
310
0000000000000000000000DBDBDBDBDBDBDBDDDBDCDBDCDCDCDCDBDCDCDBDBDB
310
DBDCDCDBDBDBDCDB000000000000000000000000000000000000000000000000
310
0000000000000000000000000000000000000000000000000000000000000000
310
0000000000000000000000000000000000000000000000000000000000000000
310
0000000000000000000000000000000000000000000000000000000000000000
310
0000000000000000000000000000000000000000000000000000000000000000
310
0000000000000000000000000000000000000000000000000000000000000000
310
000000000000000000000000000000000000000000000000DCDCDDDCDBDCDBDB
310
DCDBDBDBDBDCDBDBDBDCDCDCDBDCDBDCDBDDDBDC000000000000000000000000
310
0000000000000000000000000000000000000000000000000000000000000000
310
0000000000000000000000000000000000000000000000000000000000000000
310
0000000000000000000000000000000000000000000000000000000000000000
310
0000000000000000000000000000000000000000000000000000000000000000
310
0000000000000000000000000000000000000000000000000000000000000000
310
0000000000000000000000000000000000000000000000000000000000000000
310
00000000DCDBDDDBDCDCDCDDDBDCDBDCDBDBDBDBDBDCDCDBDCDBDCDBDBDBDCDC
310
DB00000000000000000000000000000000000000000000000000000000000000
310
0000000000000000000000000000000000000000000000000000000000000000
310
0000000000000000000000000000000000000000000000000000000000000000
310
0000000000000000000000000000000000000000000000000000000000000000
310
0000000000000000000000000000000000000000000000000000000000000000
310
0000000000000000000000000000000000000000000000000000000000000000
310
0000000000000000000000000000000000DCDBDBDCDBDCDBDBDCDBDBDDDCDCDB
310
DBDCDBDBDBDCDCDBDCDBDCDCDB00000000000000000000000000000000000000
310
0000000000000000000000000000000000000000000000000000000000000000
310
0000000000000000000000000000000000000000000000000000000000000000
310
0000000000000000000000000000000000000000000000000000000000000000
310
0000000000000000000000000000000000000000000000000000000000000000
310
0000000000000000000000000000000000000000000000000000000000000000
310
0000000000000000000000000000000000000000000000000000000000DCDDDB
310
DCDCDBDBDBDCDBDCDCDBDDDCDCDBDBDBDBDBDCDCDCDBDBDBDB00000000000000
310
0000000000000000000000000000000000000000000000000000000000000000
310
0000000000000000000000000000000000000000000000000000000000000000
310
0000000000000000000000000000000000000000000000000000000000000000
310
0000000000000000000000000000000000000000000000000000000000000000
310
0000000000000000000000000000000000000000000000000000000000000000
310
0000000000000000000000000000000000000000000000000000000000000000
310
00000000000000000000DBDBDCDBDBDBDCDBDBDBDCDBDCDDDCDCDBDCDDDDDBDC
310
DBDBDCDCDBDC0000000000000000000000000000000000000000000000000000
310
0000000000000000000000000000000000000000000000000000000000000000
310
0000000000000000000000000000000000000000000000000000000000000000
310
0000000000000000000000000000000000000000000000000000000000000000
310
0000000000000000000000000000000000000000000000000000000000000000
310
0000000000000000000000000000000000000000000000000000000000000000
310
00000000000000000000000000000000000000000000DBDBDBDCDBDDDCDBDCDB
310
DBDCDBDCDBDCDBDCDBDCDBDBDBDBDCDBDBDB0000000000000000000000000000
310
0000000000000000000000000000000000000000000000000000000000000000
310
0000000000000000000000000000000000000000000000000000000000000000
310
0000000000000000000000000000000000000000000000000000000000000000
310
0000000000000000000000000000000000000000000000000000000000000000
310
0000000000000000000000000000000000000000000000000000000000000000
310
0000000000000000000000000000000000000000000000000000000000000000
310
000000DCDCDBDBDCDBDCDDDCDCDBDCDBDCDBDBDBDCDCDCDCDBDDDBDDDCDCDC00
310
0000000000000000000000000000000000000000000000000000000000000000
310
0000000000000000000000000000000000000000000000000000000000000000
310
0000000000000000000000000000000000000000000000000000000000000000
310
0000000000000000000000000000000000000000000000000000000000000000
310
0000000000000000000000000000000000000000000000000000000000000000
310
0000000000000000000000000000000000000000000000000000000000000000
310
000000000000000000000000000000DCDCDBDDDCDBDCDBDCDDDBDBDCDCDBDBDB
310
DBDCDBDBDBDCDCDBDCDCDB000000000000000000000000000000000000000000
310
0000000000000000000000000000000000000000000000000000000000000000
310
0000000000000000000000000000000000000000000000000000000000000000
310
0000000000000000000000000000000000000000000000000000000000000000
310
0000000000000000000000000000000000000000000000000000000000000000
310
0000000000000000000000000000000000000000000000000000000000000000
310
000000000000000000000000000000000000000000000000000000DCDBDBDCDB
310
DCDDDBDCDDDDDCDBDBDBDBDBDCDBDCDCDBDCDCDBDCDCDBDC0000000000000000
310
0000000000000000000000000000000000000000000000000000000000000000
310
0000000000000000000000000000000000000000000000000000000000000000
310
0000000000000000000000000000000000000000000000000000000000000000
310
0000000000000000000000000000000000000000000000000000000000000000
310
0000000000000000000000000000000000000000000000000000000000000000
310
0000000000000000000000000000000000000000000000000000000000000000
310
0000000000000000DCDBDBDCDCDBDBDCDBDBDBDCDCDDDDDBDDDCDDDCDBDBDCDB
310
DBDBDDDB00000000000000000000000000000000000000000000000000000000
310
0000000000000000000000000000000000000000000000000000000000000000
310
0000000000000000000000000000000000000000000000000000000000000000
310
0000000000000000000000000000000000000000000000000000000000000000
310
0000000000000000000000000000000000000000000000000000000000000000
310
0000000000000000000000000000000000000000000000000000000000000000
310
0000000000000000000000000000000000000000DBDBDCDBDBDDDCDBDCDCDBDC
310
DCDCDCDBDBDDDCDCDCDCDBDCDBDBDBDB00000000000000000000000000000000
310
0000000000000000000000000000000000000000000000000000000000000000
310
0000000000000000000000000000000000000000000000000000000000000000
310
0000000000000000000000000000000000000000000000000000000000000000
310
0000000000000000000000000000000000000000000000000000000000000000
310
0000000000000000000000000000000000000000000000000000000000000000
310
0000000000000000000000000000000000000000000000000000000000000000
310
00DCDCDBDDDCDBDCDBDCDCDCDBDBDCDBDDDCDCDCDCDCDDDCDCDCDBDCDC000000
310
0000000000000000000000000000000000000000000000000000000000000000
310
0000000000000000000000000000000000000000000000000000000000000000
310
0000000000000000000000000000000000000000000000000000000000000000
310
0000000000000000000000000000000000000000000000000000000000000000
310
0000000000000000000000000000000000000000000000000000000000000000
310
0000000000000000000000000000000000000000000000000000000000000000
310
00000000000000000000000000DBDCDBDBDBDBDCDCDCDCDCDDDCDBDBDBDBDCDC
310
DCDCDBDBDBDBDCDCDC0000000000000000000000000000000000000000000000
310
0000000000000000000000000000000000000000000000000000000000000000
310
0000000000000000000000000000000000000000000000000000000000000000
310
0000000000000000000000000000000000000000000000000000000000000000
310
0000000000000000000000000000000000000000000000000000000000000000
310
0000000000000000000000000000000000000000000000000000000000000000
310
0000000000000000000000000000000000000000000000000000DCDCDCDDDBDD
310
DCDBDBDBDCDCDCDBDCDBDBDBDBDDDBDCDCDCDBDCDBDB00000000000000000000
310
0000000000000000000000000000000000000000000000000000000000000000
310
0000000000000000000000000000000000000000000000000000000000000000
310
0000000000000000000000000000000000000000000000000000000000000000
310
0000000000000000000000000000000000000000000000000000000000000000
310
0000000000000000000000000000000000000000000000000000000000000000
310
0000000000000000000000000000000000000000000000000000000000000000
310
000000000000DBDCDCDCDCDCDCDBDBDCDDDBDCDDDCDBDCDBDCDBDBDBDCDBDBDB
310
DDDB000000000000000000000000000000000000000000000000000000000000
310
0000000000000000000000000000000000000000000000000000000000000000
310
0000000000000000000000000000000000000000000000000000000000000000
310
0000000000000000000000000000000000000000000000000000000000000000
310
0000000000000000000000000000000000000000000000000000000000000000
310
0000000000000000000000000000000000000000000000000000000000000000
310
00000000000000000000000000000000000000DCDBDBDCDBDDDCDBDCDCDBDBDB
310
DBDCDBDBDCDCDBDBDCDBDBDCDCDCDC0000000000000000000000000000000000
310
0000000000000000000000000000000000000000000000000000000000000000
310
0000000000000000000000000000000000000000000000000000000000000000
310
0000000000000000000000000000000000000000000000000000000000000000
310
0000000000000000000000000000000000000000000000000000000000000000
310
0000000000000000000000000000000000000000000000000000000000000000
310
00000000000000000000000000000000000000000000000000000000000000DC
310
DBDBDBDBDBDBDCDBDCDDDBDBDBDCDCDBDCDBDBDCDBDBDBDCDBDDDC0000000000
310
0000000000000000000000000000000000000000000000000000000000000000
310
0000000000000000000000000000000000000000000000000000000000000000
310
0000000000000000000000000000000000000000000000000000000000000000
310
0000000000000000000000000000000000000000000000000000000000000000
310
0000000000000000000000000000000000000000000000000000000000000000
310
0000000000000000000000000000000000000000000000000000000000000000
310
0000000000000000000000DBDBDCDCDCDBDBDCDBDCDCDBDCDCDBDBDBDCDBDCDB
310
DBDBDBDCDBDBDCDB000000000000000000000000000000000000000000000000
310
0000000000000000000000000000000000000000000000000000000000000000
310
0000000000000000000000000000000000000000000000000000000000000000
310
0000000000000000000000000000000000000000000000000000000000000000
310
0000000000000000000000000000000000000000000000000000000000000000
310
0000000000000000000000000000000000000000000000000000000000000000
310
000000000000000000000000000000000000000000000000DBDCDCDBDBDBDCDB
310
DCDBDBDCDDDBDBDCDBDBDBDCDCDBDCDBDBDBDBDC000000000000000000000000
310
0000000000000000000000000000000000000000000000000000000000000000
310
0000000000000000000000000000000000000000000000000000000000000000
310
0000000000000000000000000000000000000000000000000000000000000000
310
0000000000000000000000000000000000000000000000000000000000000000
310
0000000000000000000000000000000000000000000000000000000000000000
310
0000000000000000000000000000000000000000000000000000000000000000
310
00000000DBDCDBDCDCDBDCDBDBDBDCDCDBDCDBDCDBDBDBDCDCDBDCDBDBDCDBDB
310
0000000000000000000000000000000000000000000000000000000000000000
310
0000000000000000000000000000000000000000000000000000000000000000
310
0000000000000000000000000000000000000000000000000000000000000000
310
0000000000000000000000000000000000000000000000000000000000000000
310
0000000000000000000000000000000000000000000000000000000000000000
310
0000000000000000000000000000000000000000000000000000000000000000
310
0000000000000000000000000000000000DDDBDCDBDBDCDCDDDCDBDBDBDBDCDD
310
DDDBDBDDDCDCDCDCDBDBDDDBDD00000000000000000000000000000000000000
310
0000000000000000000000000000000000000000000000000000000000000000
310
0000000000000000000000000000000000000000000000000000000000000000
310
0000000000000000000000000000000000000000000000000000000000000000
310
0000000000000000000000000000000000000000000000000000000000000000
310
0000000000000000000000000000000000000000000000000000000000000000
310
0000000000000000000000000000000000000000000000000000000000DCDBDB
310
DCDDDDDCDDDBDCDBDCDBDBDBDCDBDBDBDBDCDCDCDBDCDCDCDB00000000000000
310
0000000000000000000000000000000000000000000000000000000000000000
310
0000000000000000000000000000000000000000000000000000000000000000
310
0000000000000000000000000000000000000000000000000000000000000000
310
0000000000000000000000000000000000000000000000000000000000000000
310
0000000000000000000000000000000000000000000000000000000000000000
310
0000000000000000000000000000000000000000000000000000000000000000
310
00000000000000000000DCDBDBDDDBDBDBDBDCDDDBDCDCDCDCDDDBDCDBDBDBDC
310
DBDCDBDBDCDB0000000000000000000000000000000000000000000000000000
310
0000000000000000000000000000000000000000000000000000000000000000
310
0000000000000000000000000000000000000000000000000000000000000000
310
0000000000000000000000000000000000000000000000000000000000000000
310
0000000000000000000000000000000000000000000000000000000000000000
310
0000000000000000000000000000000000000000000000000000000000000000
310
0000000000000000000000000000000000000000000000000000000000000000
310
0000000000000000000000000000000000000000000000000000000000000000
310
0000000000000000000000000000000000000000000000000000000000000000
310
0000000000000000000000000000000000000000000000000000000000000000
310
0000000000000000000000000000000000000000000000000000000000000000
310
0000000000000000000000000000000000000000000000000000000000000000
310
0000000000000000000000000000000000000000000000000000000000000000
310
0000000000000000000000000000000000000000000000000000000000000000
310
0000000000000000000000000000000000000000000000000000000000000000
310
0000000000000000000000000000000000000000000000000000000000000000
310
0000000000000000000000000000000000000000000000000000000000000000
310
0000000000000000000000000000000000000000000000000000000000000000
310
0000000000000000000000000000000000000000000000000000000000000000
310
0000000000000000000000000000000000000000000000000000000000000000
310
0000000000000000000000000000000000000000000000000000000000000000
310
0000000000000000000000000000000000000000000000000000000000000000
310
0000000000000000000000000000000000000000000000000000000000000000
310
0000000000000000000000000000000000000000000000000000000000000000
310
0000000000000000000000000000000000000000000000000000000000000000
310
0000000000000000000000000000000000000000000000000000000000000000
310
0000000000000000000000000000000000000000000000000000000000000000
310
0000000000000000000000000000000000000000000000000000000000000000
310
0000000000000000000000000000000000000000000000000000000000000000
310
0000000000000000000000000000000000000000000000000000000000000000
310
0000000000000000000000000000000000000000000000000000000000000000
310
0000000000000000000000000000000000000000000000000000000000000000
310
0000000000000000000000000000000000000000000000000000000000000000
310
0000000000000000000000000000000000000000000000000000000000000000
310
0000000000000000000000000000000000000000000000000000000000000000
310
0000000000000000000000000000000000000000000000000000000000000000
310
0000000000000000000000000000000000000000000000000000000000000000
310
0000000000000000000000000000000000000000000000000000000000000000
310
0000000000000000000000000000000000000000000000000000000000000000
310
0000000000000000000000000000000000000000000000000000000000000000
310
0000000000000000000000000000000000000000000000000000000000000000
310
0000000000000000000000000000000000000000000000000000000000000000
310
0000000000000000000000000000000000000000000000000000000000000000
310
0000000000000000000000000000000000000000000000000000000000000000
310
0000000000000000000000000000000000000000000000000000000000000000
310
01004F006C006500310030004900740065006D004E0061006D00650000000000
310
0000000000000000000000000000000000000000000000000000000000000000
310
1E000200FFFFFFFFFFFFFFFFFFFFFFFF00000000000000000000000000000000
310
0000000000000000000000000000000000000000030000000500000000000000
310
0000000000000000000000000000000000000000000000000000000000000000
310
0000000000000000000000000000000000000000000000000000000000000000
310
00000000FFFFFFFFFFFFFFFFFFFFFFFF00000000000000000000000000000000
310
0000000000000000000000000000000000000000000000000000000000000000
310
0000000000000000000000000000000000000000000000000000000000000000
310
0000000000000000000000000000000000000000000000000000000000000000
310
00000000FFFFFFFFFFFFFFFFFFFFFFFF00000000000000000000000000000000
310
0000000000000000000000000000000000000000000000000000000000000000
310
0000000000000000000000000000000000000000000000000000000000000000
310
0000000000000000000000000000000000000000000000000000000000000000
310
00000000FFFFFFFFFFFFFFFFFFFFFFFF00000000000000000000000000000000
310
0000000000000000000000000000000000000000000000000000000000000000
  1
OLE
  0
VIEWPORT
  5
51F
330
1B
100
AcDbEntity
 67
     1
  8
kiri
100
AcDbViewport
 10
78.0672289434575
 20
232.2800092209114
 30
0.0
 40
136.8664931878609
 41
100.7789825218278
 68
     4
 69
     3
 12
725.8067022999121
 22
1495.100158205764
 13
0.0
 23
0.0
 14
10.0
 24
10.0
 15
10.0
 25
10.0
 16
0.0
 26
0.0
 36
1.0
 17
0.0
 27
0.0
 37
0.0
 42
50.0
 43
0.0
 44
0.0
 45
201.5579626578024
 50
0.0
 51
0.0
 72
   100
 90
    49184
  1

281
     0
 71
     1
 74
     0
110
0.0
120
0.0
130
0.0
111
1.0
121
0.0
131
0.0
112
0.0
122
1.0
132
0.0
 79
     0
146
0.0
  0
VIEWPORT
  5
521
330
1B
100
AcDbEntity
 67
     1
  8
kiri
100
AcDbViewport
 10
312.0075293273767
 20
82.58584378619969
 30
0.0
 40
182.3418217122259
 41
102.7211767645278
 68
     3
 69
     4
 12
3202.899244456327
 22
1248.439751456601
 13
0.0
 23
0.0
 14
10.0
 24
10.0
 15
10.0
 25
10.0
 16
0.0
 26
0.0
 36
1.0
 17
0.0
 27
0.0
 37
0.0
 42
50.0
 43
0.0
 44
0.0
 45
205.4423535290557
 50
0.0
 51
0.0
 72
   100
 90
    49184
  1

281
     0
 71
     1
 74
     0
110
0.0
120
0.0
130
0.0
111
1.0
121
0.0
131
0.0
112
0.0
122
1.0
132
0.0
 79
     0
146
0.0
  0
MTEXT
  5
56F
330
1B
100
AcDbEntity
 67
     1
  8
kiri
100
AcDbMText
 10
19.81328209235039
 20
27.39330223805734
 30
0.0
 40
3.0
 41
235.0
 71
     1
 72
     5
  1
{\fArial|b0|i0|c186|p34;NB!!! Antud sõlmed on soovituslikud \Pning tuleks viia kooskõlla vastavalt ülejäänud projekti konstruktiivsete lahendustega.}
 73
     1
 44
1.0
  0
LINE
  5
570
330
1B
100
AcDbEntity
 67
     1
  8
kiri
100
AcDbLine
 10
240.5632831779807
 20
167.9475009264066
 30
0.0
 11
240.5632831779807
 21
257.5966946923039
 31
0.0
  0
MTEXT
  5
571
330
1B
100
AcDbEntity
 67
     1
  8
kiri
100
AcDbMText
 10
242.3400778653162
 20
255.7672873720643
 30
0.0
 40
2.5
 41
91.0
 71
     1
 72
     5
  1
{\fArial|b0|i0|c186|p34;Betoonkatusekivi\PRoov 50x50mm sammuga 320 - 375mm\PTuulutusliist 25x50mm\PMittehingav aluskate Spanflex Fleece\PSarikas}
 73
     1
 44
1.0
  0
LINE
  5
572
330
1B
100
AcDbEntity
 67
     1
  8
kiri
100
AcDbLine
 10
240.5632831779808
 20
253.0326620448617
 30
0.0
 11
312.7710511933287
 21
253.0326620448617
 31
0.0
  0
LINE
  5
573
330
1B
100
AcDbEntity
 67
     1
  8
kiri
100
AcDbLine
 10
240.5632831779808
 20
248.7365733787802
 30
0.0
 11
312.7710511933287
 21
248.7365733787802
 31
0.0
  0
LINE
  5
574
330
1B
100
AcDbEntity
 67
     1
  8
kiri
100
AcDbLine
 10
240.5632831779808
 20
244.4610255299529
 30
0.0
 11
312.7710511933287
 21
244.4610255299529
 31
0.0
  0
LINE
  5
575
330
1B
100
AcDbEntity
 67
     1
  8
kiri
100
AcDbLine
 10
240.5632831779808
 20
240.2475562398544
 30
0.0
 11
312.7710511933287
 21
240.2475562398543
 31
0.0
  0
LINE
  5
576
330
1B
100
AcDbEntity
 67
     1
  8
kiri
100
AcDbLine
 10
240.5632831779808
 20
235.9731503731317
 30
0.0
 11
312.7710511933287
 21
235.9731503731317
 31
0.0
  0
LINE
  5
57B
330
1B
100
AcDbEntity
 67
     1
  8
kiri
100
AcDbLine
 10
309.4064411474267
 20
129.5916807221311
 30
0.0
 11
320.989354955119
 21
138.7419470232448
 31
0.0
  0
LINE
  5
57C
330
1B
100
AcDbEntity
 67
     1
  8
kiri
100
AcDbLine
 10
320.989354955119
 20
138.7419470232448
 30
0.0
 11
345.1210476298165
 21
138.7419470232448
 31
0.0
  0
LINE
  5
57D
330
1B
100
AcDbEntity
 67
     1
  8
kiri
100
AcDbLine
 10
305.6399454406419
 20
95.15648009880669
 30
0.0
 11
281.2943517332178
 21
123.3168876197086
 31
0.0
  0
LINE
  5
57E
330
1B
100
AcDbEntity
 67
     1
  8
kiri
100
AcDbLine
 10
281.2943517332178
 20
123.3168876197086
 30
0.0
 11
220.9231937224865
 21
123.3168876197086
 31
0.0
  0
LINE
  5
57F
330
1B
100
AcDbEntity
 67
     1
  8
kiri
100
AcDbLine
 10
237.3060127507467
 20
53.47422737779652
 30
0.0
 11
177.3491566758664
 21
53.47422737779652
 31
0.0
  0
LINE
  5
580
330
1B
100
AcDbEntity
 67
     1
  8
kiri
100
AcDbLine
 10
351.0773784426803
 20
40.48962739604633
 30
0.0
 11
385.2733263716643
 21
40.48962739604633
 31
0.0
  0
TEXT
  5
585
330
1B
100
AcDbEntity
 67
     1
  8
kiri
100
AcDbText
 10
324.8225039201229
 20
139.2092886070428
 30
0.0
 40
3.0
  1
Harjakivi
100
AcDbText
  0
TEXT
  5
586
330
1B
100
AcDbEntity
 67
     1
  8
kiri
100
AcDbText
 10
221.8094939663992
 20
123.7090834972752
 30
0.0
 40
3.0
  1
Puitprofiil kõrgusega 75mm
100
AcDbText
  0
TEXT
  5
58B
330
1B
100
AcDbEntity
 67
     1
  8
kiri
100
AcDbText
 10
178.0131195461672
 20
54.22934988307827
 30
0.0
 40
3.0
  1
Kinnitusklamber
100
AcDbText
  0
TEXT
  5
58C
330
1B
100
AcDbEntity
 67
     1
  8
kiri
100
AcDbText
 10
372.2775240833966
 20
40.78596020506995
 30
0.0
 40
2.5
  1
Roov
100
AcDbText
  0
LINE
  5
591
330
1B
100
AcDbEntity
 67
     1
  8
kiri
100
AcDbLine
 10
106.5713245466871
 20
252.0488704850479
 30
0.0
 11
91.08167271920093
 21
273.3719404272769
 31
0.0
  0
LINE
  5
592
330
1B
100
AcDbEntity
 67
     1
  8
kiri
100
AcDbLine
 10
91.08167271920093
 20
273.3719404272769
 30
0.0
 11
56.81071571173493
 21
273.3719404272769
 31
0.0
  0
LINE
  5
593
330
1B
100
AcDbEntity
 67
     1
  8
kiri
100
AcDbLine
 10
55.91044674931868
 20
255.1924674363882
 30
0.0
 11
53.0390389011875
 21
264.4609011748909
 31
0.0
  0
LINE
  5
594
330
1B
100
AcDbEntity
 67
     1
  8
kiri
100
AcDbLine
 10
53.0390389011875
 20
264.4609011748909
 30
0.0
 11
11.29318278424079
 21
264.4609011748909
 31
0.0
  0
LINE
  5
595
330
1B
100
AcDbEntity
 67
     1
  8
kiri
100
AcDbLine
 10
51.44717174233903
 20
216.6421205111694
 30
0.0
 11
42.67049968718902
 21
210.0791783433181
 31
0.0
  0
LINE
  5
596
330
1B
100
AcDbEntity
 67
     1
  8
kiri
100
AcDbLine
 10
42.67049968718902
 20
210.0791783433181
 30
0.0
 11
12.44814325651759
 21
210.0791783433181
 31
0.0
  0
LINE
  5
597
330
1B
100
AcDbEntity
 67
     1
  8
kiri
100
AcDbLine
 10
93.40610409631972
 20
219.0381545089065
 30
0.0
 11
131.4650073386374
 21
219.0381545089065
 31
0.0
  0
LINE
  5
598
330
1B
100
AcDbEntity
 67
     1
  8
kiri
100
AcDbLine
 10
88.13061302780829
 20
232.0266680499604
 30
0.0
 11
95.29020912017427
 21
235.791455030776
 31
0.0
  0
LINE
  5
599
330
1B
100
AcDbEntity
 67
     1
  8
kiri
100
AcDbLine
 10
95.29020912017427
 20
235.791455030776
 30
0.0
 11
144.4653255069579
 21
235.791455030776
 31
0.0
  0
TEXT
  5
59A
330
1B
100
AcDbEntity
 67
     1
  8
kiri
100
AcDbText
 10
14.47357352220774
 20
264.821285932732
 30
0.0
 40
3.0
  1
Betoonkatusekivi
100
AcDbText
  0
TEXT
  5
59B
330
1B
100
AcDbEntity
 67
     1
  8
kiri
100
AcDbText
 10
62.67318407263633
 20
273.5631380525371
 30
0.0
 40
3.0
  1
Linnutõke
100
AcDbText
  0
TEXT
  5
59C
330
1B
100
AcDbEntity
 67
     1
  8
kiri
100
AcDbText
 10
15.46173210595975
 20
210.3376148241632
 30
0.0
 40
3.0
  1
Veenina
100
AcDbText
  0
TEXT
  5
5A1
330
1B
100
AcDbEntity
 67
     1
  8
kiri
100
AcDbText
 10
99.69293441729156
 20
235.9467137218232
 30
0.0
 40
3.0
  1
Roovi kõrgendus
100
AcDbText
  0
TEXT
  5
5A2
330
1B
100
AcDbEntity
 67
     1
  8
kiri
100
AcDbText
 10
123.2218687928705
 20
232.0840869014974
 30
0.0
 40
3.0
  1
15 - 25mm
100
AcDbText
  0
TEXT
  5
5A3
330
1B
100
AcDbEntity
 67
     1
  8
kiri
100
AcDbText
 10
111.1634020017686
 20
219.3000004897909
 30
0.0
 40
3.0
  1
Roov
100
AcDbText
  0
MTEXT
  5
5AE
330
1B
100
AcDbEntity
 67
     1
  8
kiri
100
AcDbMText
 10
20.74796799176169
 20
42.74468227938405
 30
0.0
 40
3.0
 41
175.7923482338662
 71
     1
 72
     5
  1
{\fArial|b0|i0|c186|p34;Märkus:\PMadalamate kallete puhul 11 - 25° tuleks harjalauana kasutada puitprofiili kõrgusega 75mm}
 73
     1
 44
1.0
  0
LINE
  5
620
330
1B
100
AcDbEntity
 67
     1
  8
kiri
100
AcDbLine
 10
327.6375003979967
 20
103.1814454205868
 30
0.0
 11
357.7462698833976
 21
121.963021950247
 31
0.0
  0
LINE
  5
621
330
1B
100
AcDbEntity
 67
     1
  8
kiri
100
AcDbLine
 10
357.7462698833976
 20
121.963021950247
 30
0.0
 11
389.9539645791237
 21
121.963021950247
 31
0.0
  0
TEXT
  5
622
330
1B
100
AcDbEntity
 67
     1
  8
kiri
100
AcDbText
 10
366.0582587816518
 20
122.1563984664284
 30
0.0
 40
3.0
  1
Harjatihend
100
AcDbText
  0
LINE
  5
62A
330
1B
100
AcDbEntity
 67
     1
  8
kiri
100
AcDbLine
 10
409.9117124560559
 20
23.83269641732408
 30
0.0
 11
409.9117124560559
 21
3.832696417324086
 31
0.0
  0
LINE
  5
62B
330
1B
100
AcDbEntity
 67
     1
  8
kiri
100
AcDbLine
 10
377.097365859031
 20
3.832696417324086
 30
0.0
 11
409.9117124560559
 21
3.832696417324086
 31
0.0
  0
LWPOLYLINE
  5
663
330
1B
100
AcDbEntity
 67
     1
  8
kiri
 48
0.1
100
AcDbPolyline
 90
        4
 70
     1
 43
0.0
 10
409.9117124560559
 20
3.832696417324086
 10
3.911712456055965
 20
3.832696417324086
 10
3.911712456055965
 20
286.832696417324
 10
409.9117124560559
 20
286.832696417324
  0
MTEXT
  5
672
330
1B
100
AcDbEntity
 67
     1
  8
kiri
100
AcDbMText
 10
380.9238273270659
 20
16.70442953159511
 30
0.0
 40
2.0
 41
29.0
 71
     1
 72
     5
  1
{\fArial|b0|i0|c186|p34;A3 paber}
 73
     1
 44
1.0
  0
ENDSEC
  0
SECTION
  2
OBJECTS
  0
DICTIONARY
  5
C
330
0
100
AcDbDictionary
281
     1
  3
ACAD_GROUP
350
D
  3
ACAD_LAYOUT
350
1A
  3
ACAD_MLINESTYLE
350
17
  3
ACAD_PLOTSETTINGS
350
19
  3
ACAD_PLOTSTYLENAME
350
E
  3
AcDbVariableDictionary
350
2A5
  3
ASE_INDEX_DICTIONARY
350
5E3
  0
DICTIONARY
  5
31
330
2
100
AcDbDictionary
280
     1
281
     1
  3
ACAD_LAYERFILTERS
360
32
  3
ACAD_LAYERSTATES
360
284
  0
DICTIONARY
  5
D
102
{ACAD_REACTORS
330
C
102
}
330
C
100
AcDbDictionary
281
     1
  0
DICTIONARY
  5
1A
102
{ACAD_REACTORS
330
C
102
}
330
C
100
AcDbDictionary
281
     1
  3
A3
350
1E
  3
Layout2
350
26
  3
Model
350
22
  0
DICTIONARY
  5
17
102
{ACAD_REACTORS
330
C
102
}
330
C
100
AcDbDictionary
281
     1
  3
Standard
350
18
  0
DICTIONARY
  5
19
102
{ACAD_REACTORS
330
C
102
}
330
C
100
AcDbDictionary
281
     1
  0
ACDBDICTIONARYWDFLT
  5
E
102
{ACAD_REACTORS
330
C
102
}
330
C
100
AcDbDictionary
281
     1
  3
Normal
350
F
100
AcDbDictionaryWithDefault
340
F
  0
DICTIONARY
  5
2A5
102
{ACAD_REACTORS
330
C
102
}
330
C
100
AcDbDictionary
281
     1
  3
DIMASSOC
350
2A7
  3
HIDETEXT
350
2A6
  0
DICTIONARY
  5
5E3
102
{ACAD_REACTORS
330
C
102
}
330
C
100
AcDbDictionary
281
     1
  3
ASEBlockHierarchyIndexRecord
350
5E5
1001
DCO15
1040
1506241486.124999
  0
DICTIONARY
  5
32
102
{ACAD_REACTORS
330
31
102
}
330
31
100
AcDbDictionary
280
     1
281
     1
  3
# Arhitektuur
360
33
  3
# Asend
360
34
  3
# Asendiplaan
360
35
  3
# Elekter
360
36
  3
# Kõik kihid
360
37
  3
# Küte-vent
360
38
  3
# Planeering
360
39
  3
# Sisekujundus
360
3A
  3
# Soojus
360
3B
  3
# Tehnoloogia
360
3C
  3
# Topo
360
3D
  3
# Topo-geodeesia
360
3E
  3
# Tugiplaan
360
3F
  3
# Vertikaal-teed
360
40
  3
# Vesi-kanal
360
41
  3
$$$
360
42
  3
$F-
360
43
  3
-
360
44
  3
-------
360
45
  3
-50
360
46
  3
-_
360
47
  3
-p
360
48
  3
0
360
49
  3
000
360
4A
  3
009
360
4B
  3
00_
360
4C
  3
01
360
4D
  3
013
360
4E
  3
018
360
4F
  3
02
360
50
  3
025
360
51
  3
030
360
52
  3
032
360
53
  3
032G
360
54
  3
035
360
55
  3
050
360
56
  3
070
360
57
  3
0_
360
58
  3
0aikstas
360
59
  3
0k
360
5A
  3
0korrus
360
5B
  3
1
360
5C
  3
1 GA
360
5D
  3
1 korrus
360
5E
  3
1-
360
5F
  3
100
360
60
  3
120
360
61
  3
121
360
62
  3
1343
360
63
  3
1784
360
64
  3
1784frst
360
65
  3
1784frst$0$
360
66
  3
1784sec5
360
67
  3
1947
360
68
  3
1aukstas
360
69
  3
1GRID
360
6A
  3
1k
360
6B
  3
1korrus
360
6C
  3
1puse
360
6D
  3
1V
360
6E
  3
2
360
6F
  3
2 KORRUS
360
70
  3
2 SPACE PLAN
360
71
  3
200
360
72
  3
218
360
73
  3
220g
360
74
  3
250
360
75
  3
2AUKSTAS
360
76
  3
2d
360
77
  3
2DPLAN
360
78
  3
2k
360
79
  3
2puse
360
7A
  3
3 CEILING
360
7B
  3
300
360
7C
  3
300-1
360
7D
  3
3845-000
360
7E
  3
4
360
7F
  3
4 ELECTRIC
360
80
  3
4021
360
81
  3
5 DEMO
360
82
  3
6 LAYER 1
360
83
  3
7 LAYER 2
360
84
  3
720
360
85
  3
720g
360
86
  3
8
360
87
  3
9
360
88
  3
96
360
89
  3
_4021
360
8A
  3
__E1
360
8B
  3
__E2
360
8C
  3
__E3
360
8D
  3
__E6
360
8E
  3
_all
360
8F
  3
_arch
360
90
  3
_AXIS
360
91
  3
_BORT
360
92
  3
_BR
360
93
  3
_Building 3
360
94
  3
_color6
360
95
  3
_DIM
360
96
  3
_External Works
360
97
  3
_first
360
98
  3
_First Floor
360
99
  3
_ground
360
9A
  3
_Ground Floor
360
9B
  3
_h
360
9C
  3
_Hatching
360
9D
  3
_KOORD
360
9E
  3
_New
360
9F
  3
_OP
360
A0
  3
_OP14
360
A1
  3
_OP15
360
A2
  3
_OP6
360
A3
  3
_PARK
360
A4
  3
_PARK4
360
A5
  3
_PIKET
360
A6
  3
_PS
360
A7
  3
_Removed
360
A8
  3
_roof
360
A9
  3
_SECTION
360
AA
  3
_SOL
360
AB
  3
_SUP
360
AC
  3
_Text
360
AD
  3
_WIN
360
AE
  3
_Without text
360
AF
  3
A
360
B0
  3
A layers
360
B1
  3
a-
360
B2
  3
A-12101
360
B3
  3
A0-FRAME
360
B4
  3
A000D
360
B5
  3
A032G
360
B6
  3
a2
360
B7
  3
a210h
360
B8
  3
a210h-50
360
B9
  3
a3
360
BA
  3
a9
360
BB
  3
AA
360
BC
  3
aadressid
360
BD
  3
adler
360
BE
  3
AJUTINE
360
BF
  3
ALEV07
360
C0
  3
ALL
360
C1
  3
all on
360
C2
  3
alles met_
360
C3
  3
ALLTEXT
360
C4
  3
ANGARS
360
C5
  3
Antras
360
C6
  3
AR
360
C7
  3
ar_bwl
360
C8
  3
ar_grd
360
C9
  3
AR_GRID
360
CA
  3
arch
360
CB
  3
Architecture
360
CC
  3
AREA
360
CD
  3
Arhitecture
360
CE
  3
ARM
360
CF
  3
as
360
D0
  3
Asend
360
D1
  3
asendiplaan
360
D2
  3
AUDITORIA
360
D3
  3
ax
360
D4
  3
B
360
D5
  3
BACK BAR
360
D6
  3
BACKBAR
360
D7
  3
BANQ'S
360
D8
  3
BAR
360
D9
  3
bar-top
360
DA
  3
bb
360
DB
  3
BDPF5R
360
DC
  3
BENCH
360
DD
  3
BHWB
360
DE
  3
blue
360
DF
  3
BOUNARY
360
E0
  3
BOUNDARY
360
E1
  3
boundry-of
360
E2
  3
BUILDERS WORK
360
E3
  3
BUILDERS-WORK
360
E4
  3
BULKHEAD
360
E5
  3
BV-LEASE
360
E6
  3
bw
360
E7
  3
bzik
360
E8
  3
c
360
E9
  3
C-
360
EA
  3
C1
360
EB
  3
CANOPY
360
EC
  3
CART
360
ED
  3
CC
360
EE
  3
Ceiling
360
EF
  3
CEILING LAYOUT
360
F0
  3
CEILING PLAN
360
F1
  3
cfp layers
360
F2
  3
CLAD
360
F3
  3
coloour
360
F4
  3
colour
360
F5
  3
COLOURS
360
F6
  3
CONC
360
F7
  3
CONCR
360
F8
  3
CONSERVITORY
360
F9
  3
CORIAN
360
FA
  3
cu dem
360
FB
  3
cu s2
360
FC
  3
cub
360
FD
  3
CURRENT
360
FE
  3
CURVED GLASS
360
FF
  3
curved walkway
360
100
  3
CYAN
360
101
  3
D
360
102
  3
D1
360
103
  3
D_
360
104
  3
dalaje
360
105
  3
das
360
106
  3
DAVE
360
107
  3
demolition
360
108
  3
demolition work
360
109
  3
dfd
360
10A
  3
dim
360
10B
  3
dim11
360
10C
  3
dim12
360
10D
  3
Dimensions
360
10E
  3
dims
360
10F
  3
DN
360
110
  3
DOM
360
111
  3
Don't plot
360
112
  3
DOOR
360
113
  3
Drain
360
114
  3
drains
360
115
  3
DSD
360
116
  3
Ductwork
360
117
  3
E - LAYERS
360
118
  3
E1
360
119
  3
E2
360
11A
  3
E3
360
11B
  3
E4
360
11C
  3
EDDIE
360
11D
  3
EI PLOTI
360
11E
  3
eiplo
360
11F
  3
EIplot
360
120
  3
EKSEN
360
121
  3
ELEC
360
122
  3
ELEVATION
360
123
  3
elevations
360
124
  3
endview
360
125
  3
entrance
360
126
  3
esam
360
127
  3
et trykkida välja
360
128
  3
exg imported
360
129
  3
EXISTING
360
12A
  3
F
360
12B
  3
FEATURE
360
12C
  3
FENCE
360
12D
  3
FINISH
360
12E
  3
finishes
360
12F
  3
FINISHES PLAN
360
130
  3
FINISHES PLANS
360
131
  3
FIRE
360
132
  3
FIRE PLAN
360
133
  3
Fire strategy
360
134
  3
FIRST FLOOR
360
135
  3
First to Roof
360
136
  3
FLAT GLASS
360
137
  3
FLOOR
360
138
  3
FLOOR PLAN
360
139
  3
FR
360
13A
  3
Fragment 2
360
13B
  3
freeze
360
13C
  3
FROS CUR VPORT
360
13D
  3
FROZ
360
13E
  3
FROZ CUR VPORT
360
13F
  3
FROZ IN CURENT
360
140
  3
frozen
360
141
  3
frozen Layers
360
142
  3
FRZ
360
143
  3
Furniture
360
144
  3
furntext
360
145
  3
furntext1
360
146
  3
furntext2
360
147
  3
furntext3
360
148
  3
FY
360
149
  3
g
360
14A
  3
GA
360
14B
  3
ga plan
360
14C
  3
GAMCO
360
14D
  3
General
360
14E
  3
geo
360
14F
  3
geodeesia
360
150
  3
git
360
151
  3
GLASS
360
152
  3
GLASS RACK
360
153
  3
gondola
360
154
  3
gp
360
155
  3
gp- ära
360
156
  3
GREEN
360
157
  3
GREET
360
158
  3
grey
360
159
  3
grid
360
15A
  3
GRID 0FF
360
15B
  3
grids
360
15C
  3
gridtext102
360
15D
  3
grnd
360
15E
  3
GROUND FLOOR
360
15F
  3
Ground to First
360
160
  3
Ground to Roof
360
161
  3
HAIRDRESSER
360
162
  3
haljastus
360
163
  3
hand
360
164
  3
HARDWARE
360
165
  3
HAT
360
166
  3
hatch
360
167
  3
hatch-off
360
168
  3
hoonestuskava
360
169
  3
HVAC
360
16A
  3
iden
360
16B
  3
INDICATE THICK LINE OF BULKHEAD
360
16C
  3
insulation
360
16D
  3
jack
360
16E
  3
JBHGVHG
360
16F
  3
JETO
360
170
  3
jhd
360
171
  3
John-Harrison
360
172
  3
JOINERE SETTING OUT
360
173
  3
KASUTUSEL
360
174
  3
katus
360
175
  3
KATUSEPLAAN
360
176
  3
KAYDIRAKLAR
360
177
  3
kaylar
360
178
  3
KENARLAR
360
179
  3
kiitoks
360
17A
  3
KINNI
360
17B
  3
KIRJANURK
360
17C
  3
kitas
360
17D
  3
KITCHEN
360
17E
  3
KITCHEN PLAN
360
17F
  3
KITCHEN SETTING OUT
360
180
  3
KONSOLLAR
360
181
  3
Koondvõrk
360
182
  3
koord
360
183
  3
kr
360
184
  3
L
360
185
  3
LABIEKARTOJUMS
360
186
  3
LAHTI
360
187
  3
Layer off
360
188
  3
LIBRARY
360
189
  3
licencing
360
18A
  3
lift
360
18B
  3
LIGHT
360
18C
  3
Lighting
360
18D
  3
liik
360
18E
  3
LINII
360
18F
  3
lk
360
190
  3
LOBBY
360
191
  3
LOBBY AND OFFICE
360
192
  3
LOCK
360
193
  3
locked
360
194
  3
LUKKU
360
195
  3
LÕIGE
360
196
  3
M1
360
197
  3
magenta
360
198
  3
Magna2000
360
199
  3
MDM1
360
19A
  3
mech
360
19B
  3
MECHANICAL
360
19C
  3
MEMBRANE
360
19D
  3
moje
360
19E
  3
N
360
19F
  3
N_
360
1A0
  3
ncw
360
1A1
  3
NERO
360
1A2
  3
No Nums
360
1A3
  3
nofurn
360
1A4
  3
nofurn1
360
1A5
  3
nofurn2
360
1A6
  3
NON XREF DEPENDANTS
360
1A7
  3
Nosuc
360
1A8
  3
npl
360
1A9
  3
nurgapu
360
1AA
  3
nõrkvool
360
1AB
  3
off
360
1AC
  3
OFFICE
360
1AD
  3
OFFICE FIRST FLOOR
360
1AE
  3
on
360
1AF
  3
on and thawed
360
1B0
  3
onlayers
360
1B1
  3
OP1
360
1B2
  3
OP2
360
1B3
  3
option 1
360
1B4
  3
option 2
360
1B5
  3
Option1
360
1B6
  3
option4
360
1B7
  3
Option5
360
1B8
  3
ORIGINAL
360
1B9
  3
out
360
1BA
  3
Outer
360
1BB
  3
outline
360
1BC
  3
P
360
1BD
  3
P - LAYERS
360
1BE
  3
P _
360
1BF
  3
P-LAYERS
360
1C0
  3
PH
360
1C1
  3
phase 1
360
1C2
  3
PHEALTH
360
1C3
  3
PHIL
360
1C4
  3
Piepl
360
1C5
  3
PIPE
360
1C6
  3
pipes
360
1C7
  3
Pipes1
360
1C8
  3
Pipework
360
1C9
  3
pirmas
360
1CA
  3
PIZZA
360
1CB
  3
pk 2d-plan
360
1CC
  3
pl
360
1CD
  3
PL1
360
1CE
  3
PLAKALAR
360
1CF
  3
planas
360
1D0
  3
PLINTH
360
1D1
  3
PLINTHS
360
1D2
  3
PLO
360
1D3
  3
plot
360
1D4
  3
plumbing
360
1D5
  3
PN
360
1D6
  3
PN_N
360
1D7
  3
PN_P
360
1D8
  3
porch
360
1D9
  3
Power
360
1DA
  3
PR
360
1DB
  3
PR-TRASSID
360
1DC
  3
prep
360
1DD
  3
primary
360
1DE
  3
proj
360
1DF
  3
proj-trassid
360
1E0
  3
PROP
360
1E1
  3
prop builders work
360
1E2
  3
proposed
360
1E3
  3
ps
360
1E4
  3
PU
360
1E5
  3
qq
360
1E6
  3
r
360
1E7
  3
R0
360
1E8
  3
R1
360
1E9
  3
R2
360
1EA
  3
R3
360
1EB
  3
rack
360
1EC
  3
RCP
360
1ED
  3
RED
360
1EE
  3
reds
360
1EF
  3
ref ceiling
360
1F0
  3
ref ceiling 1
360
1F1
  3
REFLECTED CEILING PLAN
360
1F2
  3
REI ainult
360
1F3
  3
RELECTED CEILING PLAN 012
360
1F4
  3
REST
360
1F5
  3
restaurant
360
1F6
  3
rev
360
1F7
  3
Revs
360
1F8
  3
ROHELINE
360
1F9
  3
ROOFLIGHT
360
1FA
  3
rsfl
360
1FB
  3
s
360
1FC
  3
S - LAYERS
360
1FD
  3
s 1
360
1FE
  3
saldymas
360
1FF
  3
san
360
200
  3
SANDSTONE
360
201
  3
sanitary
360
202
  3
SCALE 100 TEXT
360
203
  3
SCALE 200 TEXT
360
204
  3
SCALE 50 TEXT
360
205
  3
screed plan
360
206
  3
SEC
360
207
  3
secondary
360
208
  3
section
360
209
  3
SELF SERVICE
360
20A
  3
servery
360
20B
  3
SERVICES
360
20C
  3
SF
360
20D
  3
shadow
360
20E
  3
shadow-off
360
20F
  3
SHELF
360
210
  3
SHELVES
360
211
  3
shema
360
212
  3
sienos
360
213
  3
SIGNAGE
360
214
  3
SINBLU
360
215
  3
Sinergy
360
216
  3
SININE
360
217
  3
SININE1
360
218
  3
SIT
360
219
  3
SITE
360
21A
  3
siyah
360
21B
  3
skersinis
360
21C
  3
solid
360
21D
  3
solid fills
360
21E
  3
SPIRAL
360
21F
  3
SPOTLIGHTS
360
220
  3
stairs
360
221
  3
standard
360
222
  3
stoły
360
223
  3
Stru
360
224
  3
Structure
360
225
  3
STRUT
360
226
  3
STUBS
360
227
  3
SUFLATORI
360
228
  3
surv
360
229
  3
SURVEY
360
22A
  3
Susanne
360
22B
  3
SWEET
360
22C
  3
SYNERGY
360
22D
  3
T1
360
22E
  3
TABLE
360
22F
  3
tags
360
230
  3
TEACH
360
231
  3
test
360
232
  3
TEXT
360
233
  3
TH
360
234
  3
thaw
360
235
  3
thawed
360
236
  3
THP
360
237
  3
tjp
360
238
  3
tone
360
239
  3
TOP
360
23A
  3
Topo
360
23B
  3
tr
360
23C
  3
trassid
360
23D
  3
trassid-txt
360
23E
  3
tree
360
23F
  3
tu_
360
240
  3
Tugiplaan
360
241
  3
txt
360
242
  3
UFR
360
243
  3
UNITA
360
244
  3
UNITB
360
245
  3
UNITC
360
246
  3
UP
360
247
  3
UPLO
360
248
  3
upper
360
249
  3
uus
360
24A
  3
v31
360
24B
  3
VAADE
360
24C
  3
Valgus
360
24D
  3
varem-proj-trassid
360
24E
  3
Vertikaal
360
24F
  3
vertikalinis
360
250
  3
viewports
360
251
  3
VK
360
252
  3
vor
360
253
  3
vormistus
360
254
  3
vpl
360
255
  3
VS_01
360
256
  3
VS_02
360
257
  3
VS_03
360
258
  3
VS_04
360
259
  3
VS_05
360
25A
  3
VS_06
360
25B
  3
VS_07
360
25C
  3
VS_08
360
25D
  3
VS_09
360
25E
  3
VS_10
360
25F
  3
VS_11
360
260
  3
VS_12
360
261
  3
VS_13
360
262
  3
VS_14
360
263
  3
VS_15
360
264
  3
VS_16
360
265
  3
VS_17
360
266
  3
VS_18
360
267
  3
VS_19
360
268
  3
VS_20
360
269
  3
W
360
26A
  3
W.M.T.
360
26B
  3
WADE
360
26C
  3
waiter
360
26D
  3
WALL
360
26E
  3
Walls
360
26F
  3
white
360
270
  3
white color
360
271
  3
whs-zebra-issue
360
272
  3
window
360
273
  3
WINEBIN
360
274
  3
winebins
360
275
  3
WORK
360
276
  3
X
360
277
  3
xerf
360
278
  3
XREF
360
279
  3
xref-of
360
27A
  3
XREFID
360
27B
  3
YARDIMLAR
360
27C
  3
YUZEYLER
360
27D
  0
DICTIONARY
  5
284
102
{ACAD_REACTORS
330
31
102
}
330
31
100
AcDbDictionary
281
     1
  0
LAYOUT
  5
1E
102
{ACAD_REACTORS
330
1A
102
}
330
1A
100
AcDbPlotSettings
  1

  2
CutePDF Writer
  4
A3
  6

 40
3.174999952316284
 41
3.174999952316284
 42
3.17498779296875
 43
3.17498779296875
 44
297.0530090332031
 45
420.1583251953125
 46
0.0
 47
0.0
 48
0.0
 49
0.0
140
0.0
141
0.0
142
1.0
143
1.0
 70
   688
 72
     1
 73
     1
 74
     5
  7
monochrome.ctb
 75
    16
147
1.0
148
0.0
149
0.0
100
AcDbLayout
  1
A3
 70
     1
 71
     1
 10
-3.17498779296875
 20
-3.174999952316284
 11
416.9833374023437
 21
293.8780090808868
 12
0.0
 22
0.0
 32
0.0
 14
3.89646449800125
 24
3.818909331108443
 34
-0.0000000349181948
 15
414.68816197992
 25
286.8387744886181
 35
0.0000000814935746
146
0.0
 13
0.0
 23
0.0
 33
0.0
 16
1.0
 26
0.0
 36
0.0
 17
0.0
 27
1.0
 37
0.0
 76
     0
330
1B
331
2E
  0
LAYOUT
  5
26
102
{ACAD_REACTORS
330
1A
102
}
330
1A
100
AcDbPlotSettings
  1

  2
Canon i250
  4

  6

 40
0.0
 41
0.0
 42
0.0
 43
0.0
 44
0.0
 45
0.0
 46
0.0
 47
0.0
 48
0.0
 49
0.0
140
0.0
141
0.0
142
1.0
143
1.0
 70
   688
 72
     0
 73
     0
 74
     5
  7

 75
    16
147
1.0
148
0.0
149
0.0
100
AcDbLayout
  1
Layout2
 70
     1
 71
     2
 10
0.0
 20
0.0
 11
12.0
 21
9.0
 12
0.0
 22
0.0
 32
0.0
 14
0.0
 24
0.0
 34
0.0
 15
0.0
 25
0.0
 35
0.0
146
0.0
 13
0.0
 23
0.0
 33
0.0
 16
1.0
 26
0.0
 36
0.0
 17
0.0
 27
1.0
 37
0.0
 76
     0
330
23
  0
LAYOUT
  5
22
102
{ACAD_REACTORS
330
1A
102
}
330
1A
100
AcDbPlotSettings
  1

  2
Canon i250
  4

  6

 40
0.0
 41
0.0
 42
0.0
 43
0.0
 44
0.0
 45
0.0
 46
0.0
 47
0.0
 48
0.0
 49
0.0
140
0.0
141
0.0
142
1.0
143
1.0
 70
  1712
 72
     0
 73
     0
 74
     0
  7

 75
     0
147
1.0
148
0.0
149
0.0
100
AcDbLayout
  1
Model
 70
     1
 71
     0
 10
0.0
 20
0.0
 11
12.0
 21
9.0
 12
0.0
 22
0.0
 32
0.0
 14
0.0
 24
0.0
 34
0.0
 15
0.0
 25
0.0
 35
0.0
146
0.0
 13
0.0
 23
0.0
 33
0.0
 16
1.0
 26
0.0
 36
0.0
 17
0.0
 27
1.0
 37
0.0
 76
     0
330
1F
  0
MLINESTYLE
  5
18
102
{ACAD_REACTORS
330
17
102
}
330
17
100
AcDbMlineStyle
  2
STANDARD
 70
     0
  3

 62
   256
 51
90.0
 52
90.0
 71
     2
 49
0.5
 62
   256
  6
BYLAYER
 49
-0.5
 62
   256
  6
BYLAYER
  0
ACDBPLACEHOLDER
  5
F
102
{ACAD_REACTORS
330
E
102
}
330
E
  0
DICTIONARYVAR
  5
2A7
102
{ACAD_REACTORS
330
2A5
102
}
330
2A5
100
DictionaryVariables
280
     0
  1
2
  0
DICTIONARYVAR
  5
2A6
102
{ACAD_REACTORS
330
2A5
102
}
330
2A5
100
DictionaryVariables
280
     0
  1
1
  0
XRECORD
  5
5E5
102
{ACAD_REACTORS
330
5E3
102
}
330
5E3
100
AcDbXrecord
280
     1
330
481
330
4D0
330
32E
330
330
330
334
330
335
330
336
330
33B
330
37B
330
3BA
330
3BB
330
3BC
330
400
330
0
330
2E9
  0
XRECORD
  5
33
102
{ACAD_REACTORS
330
32
102
}
330
32
100
AcDbXrecord
280
     1
  1
# Arhitektuur
  1
Ar*
  1
*
  1
*
 70
     0
  1
*
  1
*
  0
XRECORD
  5
34
102
{ACAD_REACTORS
330
32
102
}
330
32
100
AcDbXrecord
280
     1
  1
# Asend
  1
GP*
  1
*
  1
*
 70
     0
  1
*
  1
*
  0
XRECORD
  5
35
102
{ACAD_REACTORS
330
32
102
}
330
32
100
AcDbXrecord
280
     1
  1
# Asendiplaan
  1
GP*
  1
*
  1
*
 70
     0
  1
*
  1
*
  0
XRECORD
  5
36
102
{ACAD_REACTORS
330
32
102
}
330
32
100
AcDbXrecord
280
     1
  1
# Elekter
  1
El*
  1
*
  1
*
 70
     0
  1
*
  1
*
  0
XRECORD
  5
37
102
{ACAD_REACTORS
330
32
102
}
330
32
100
AcDbXrecord
280
     1
  1
# Kõik kihid
  1
*
  1
*
  1
*
 70
     0
  1
*
  1
*
  0
XRECORD
  5
38
102
{ACAD_REACTORS
330
32
102
}
330
32
100
AcDbXrecord
280
     1
  1
# Küte-vent
  1
KV*
  1
*
  1
*
 70
     0
  1
*
  1
*
  0
XRECORD
  5
39
102
{ACAD_REACTORS
330
32
102
}
330
32
100
AcDbXrecord
280
     1
  1
# Planeering
  1
*
  1
*
  1
*
 70
     0
  1
*
  1
*
  0
XRECORD
  5
3A
102
{ACAD_REACTORS
330
32
102
}
330
32
100
AcDbXrecord
280
     1
  1
# Sisekujundus
  1
As*
  1
*
  1
*
 70
     1
  1
*
  1
*
  0
XRECORD
  5
3B
102
{ACAD_REACTORS
330
32
102
}
330
32
100
AcDbXrecord
280
     1
  1
# Soojus
  1
SV*
  1
*
  1
*
 70
     0
  1
*
  1
*
  0
XRECORD
  5
3C
102
{ACAD_REACTORS
330
32
102
}
330
32
100
AcDbXrecord
280
     1
  1
# Tehnoloogia
  1
Th*
  1
*
  1
*
 70
     1
  1
*
  1
*
  0
XRECORD
  5
3D
102
{ACAD_REACTORS
330
32
102
}
330
32
100
AcDbXrecord
280
     1
  1
# Topo
  1
TG*
  1
*
  1
*
 70
     0
  1
*
  1
*
  0
XRECORD
  5
3E
102
{ACAD_REACTORS
330
32
102
}
330
32
100
AcDbXrecord
280
     1
  1
# Topo-geodeesia
  1
Tg-*
  1
*
  1
*
 70
     1
  1
*
  1
*
  0
XRECORD
  5
3F
102
{ACAD_REACTORS
330
32
102
}
330
32
100
AcDbXrecord
280
     1
  1
# Tugiplaan
  1
*
  1
*
  1
*
 70
     0
  1
*
  1
*
  0
XRECORD
  5
40
102
{ACAD_REACTORS
330
32
102
}
330
32
100
AcDbXrecord
280
     1
  1
# Vertikaal-teed
  1
VP*
  1
*
  1
*
 70
     0
  1
*
  1
*
  0
XRECORD
  5
41
102
{ACAD_REACTORS
330
32
102
}
330
32
100
AcDbXrecord
280
     1
  1
# Vesi-kanal
  1
VK*
  1
*
  1
*
 70
     1
  1
*
  1
*
  0
XRECORD
  5
42
102
{ACAD_REACTORS
330
32
102
}
330
32
100
AcDbXrecord
280
     1
  1
$$$
  1
###
  1
*
  1
*
 70
     0
  1
*
  1
*
  0
XRECORD
  5
43
102
{ACAD_REACTORS
330
32
102
}
330
32
100
AcDbXrecord
280
     1
  1
$F-
  1
option4*
  1
*
  1
*
 70
     0
  1
*
  1
*
  0
XRECORD
  5
44
102
{ACAD_REACTORS
330
32
102
}
330
32
100
AcDbXrecord
280
     1
  1
-
  1
-*
  1
*
  1
*
 70
     0
  1
*
  1
*
  0
XRECORD
  5
45
102
{ACAD_REACTORS
330
32
102
}
330
32
100
AcDbXrecord
280
     1
  1
-------
  1
-*
  1
*
  1
*
 70
     0
  1
*
  1
*
  0
XRECORD
  5
46
102
{ACAD_REACTORS
330
32
102
}
330
32
100
AcDbXrecord
280
     1
  1
-50
  1
*-50
  1
*
  1
*
 70
     0
  1
*
  1
*
  0
XRECORD
  5
47
102
{ACAD_REACTORS
330
32
102
}
330
32
100
AcDbXrecord
280
     1
  1
-_
  1
-_*
  1
*
  1
*
 70
     0
  1
*
  1
*
  0
XRECORD
  5
48
102
{ACAD_REACTORS
330
32
102
}
330
32
100
AcDbXrecord
280
     1
  1
-p
  1
*-p*
  1
*
  1
*
 70
     0
  1
*
  1
*
  0
XRECORD
  5
49
102
{ACAD_REACTORS
330
32
102
}
330
32
100
AcDbXrecord
280
     1
  1
0
  1
0*
  1
*
  1
*
 70
     0
  1
*
  1
*
  0
XRECORD
  5
4A
102
{ACAD_REACTORS
330
32
102
}
330
32
100
AcDbXrecord
280
     1
  1
000
  1
*000
  1
*
  1
*
 70
     0
  1
*
  1
*
  0
XRECORD
  5
4B
102
{ACAD_REACTORS
330
32
102
}
330
32
100
AcDbXrecord
280
     1
  1
009
  1
*009
  1
*
  1
*
 70
     0
  1
*
  1
*
  0
XRECORD
  5
4C
102
{ACAD_REACTORS
330
32
102
}
330
32
100
AcDbXrecord
280
     1
  1
00_
  1
00_*
  1
*
  1
*
 70
     0
  1
*
  1
*
  0
XRECORD
  5
4D
102
{ACAD_REACTORS
330
32
102
}
330
32
100
AcDbXrecord
280
     1
  1
01
  1
*01*
  1
*
  1
*
 70
     0
  1
*
  1
*
  0
XRECORD
  5
4E
102
{ACAD_REACTORS
330
32
102
}
330
32
100
AcDbXrecord
280
     1
  1
013
  1
*013
  1
*
  1
*
 70
     0
  1
*
  1
*
  0
XRECORD
  5
4F
102
{ACAD_REACTORS
330
32
102
}
330
32
100
AcDbXrecord
280
     1
  1
018
  1
*018
  1
*
  1
*
 70
     0
  1
*
  1
*
  0
XRECORD
  5
50
102
{ACAD_REACTORS
330
32
102
}
330
32
100
AcDbXrecord
280
     1
  1
02
  1
*02*
  1
*
  1
*
 70
     0
  1
*
  1
*
  0
XRECORD
  5
51
102
{ACAD_REACTORS
330
32
102
}
330
32
100
AcDbXrecord
280
     1
  1
025
  1
*025
  1
*
  1
*
 70
     0
  1
*
  1
*
  0
XRECORD
  5
52
102
{ACAD_REACTORS
330
32
102
}
330
32
100
AcDbXrecord
280
     1
  1
030
  1
a03*
  1
*
  1
*
 70
     0
  1
*
  1
*
  0
XRECORD
  5
53
102
{ACAD_REACTORS
330
32
102
}
330
32
100
AcDbXrecord
280
     1
  1
032
  1
*032*
  1
*
  1
*
 70
     0
  1
*
  1
*
  0
XRECORD
  5
54
102
{ACAD_REACTORS
330
32
102
}
330
32
100
AcDbXrecord
280
     1
  1
032G
  1
*032G*
  1
*
  1
*
 70
     0
  1
*
  1
*
  0
XRECORD
  5
55
102
{ACAD_REACTORS
330
32
102
}
330
32
100
AcDbXrecord
280
     1
  1
035
  1
*035
  1
*
  1
*
 70
     0
  1
*
  1
*
  0
XRECORD
  5
56
102
{ACAD_REACTORS
330
32
102
}
330
32
100
AcDbXrecord
280
     1
  1
050
  1
*050
  1
*
  1
*
 70
     0
  1
*
  1
*
  0
XRECORD
  5
57
102
{ACAD_REACTORS
330
32
102
}
330
32
100
AcDbXrecord
280
     1
  1
070
  1
*070
  1
*
  1
*
 70
     0
  1
*
  1
*
  0
XRECORD
  5
58
102
{ACAD_REACTORS
330
32
102
}
330
32
100
AcDbXrecord
280
     1
  1
0_
  1
0_*
  1
*
  1
*
 70
     0
  1
*
  1
*
  0
XRECORD
  5
59
102
{ACAD_REACTORS
330
32
102
}
330
32
100
AcDbXrecord
280
     1
  1
0aikstas
  1
*0a*,ASYS,*Tar*
  1
*
  1
*
 70
     0
  1
*
  1
*
  0
XRECORD
  5
5A
102
{ACAD_REACTORS
330
32
102
}
330
32
100
AcDbXrecord
280
     1
  1
0k
  1
0k*
  1
*
  1
*
 70
     0
  1
*
  1
*
  0
XRECORD
  5
5B
102
{ACAD_REACTORS
330
32
102
}
330
32
100
AcDbXrecord
280
     1
  1
0korrus
  1
0k *
  1
*
  1
*
 70
     0
  1
*
  1
*
  0
XRECORD
  5
5C
102
{ACAD_REACTORS
330
32
102
}
330
32
100
AcDbXrecord
280
     1
  1
1
  1
1aPlonos,1aSiena
  1
*
  1
*
 70
     0
  1
*
  1
*
  0
XRECORD
  5
5D
102
{ACAD_REACTORS
330
32
102
}
330
32
100
AcDbXrecord
280
     1
  1
1 GA
  1
??????_G??????
  1
*
  1
*
 70
     0
  1
*
  1
*
  0
XRECORD
  5
5E
102
{ACAD_REACTORS
330
32
102
}
330
32
100
AcDbXrecord
280
     1
  1
1 korrus
  1
0k *
  1
*
  1
*
 70
  3415
  1
*
  1
*
  0
XRECORD
  5
5F
102
{ACAD_REACTORS
330
32
102
}
330
32
100
AcDbXrecord
280
     1
  1
1-
  1
elec
  1
*
  1
*
 70
     0
  1
*
  1
*
  0
XRECORD
  5
60
102
{ACAD_REACTORS
330
32
102
}
330
32
100
AcDbXrecord
280
     1
  1
100
  1
*
  1
*
  1
*
 70
     0
  1
*
  1
*
  0
XRECORD
  5
61
102
{ACAD_REACTORS
330
32
102
}
330
32
100
AcDbXrecord
280
     1
  1
120
  1
*|*
  1
*
  1
*
 70
     0
  1
*
  1
*
  0
XRECORD
  5
62
102
{ACAD_REACTORS
330
32
102
}
330
32
100
AcDbXrecord
280
     1
  1
121
  1
*
  1
*
  1
*
 70
    16
  1
*
  1
*
  0
XRECORD
  5
63
102
{ACAD_REACTORS
330
32
102
}
330
32
100
AcDbXrecord
280
     1
  1
1343
  1
1343-*
  1
*
  1
*
 70
     0
  1
*
  1
*
  0
XRECORD
  5
64
102
{ACAD_REACTORS
330
32
102
}
330
32
100
AcDbXrecord
280
     1
  1
1784
  1
1784*
  1
*
  1
*
 70
     0
  1
*
  1
*
  0
XRECORD
  5
65
102
{ACAD_REACTORS
330
32
102
}
330
32
100
AcDbXrecord
280
     1
  1
1784frst
  1
*
  1
*
  1
*
 70
     0
  1
*
  1
*
  0
XRECORD
  5
66
102
{ACAD_REACTORS
330
32
102
}
330
32
100
AcDbXrecord
280
     1
  1
1784frst$0$
  1
1784frst$0$*
  1
*
  1
*
 70
     0
  1
*
  1
*
  0
XRECORD
  5
67
102
{ACAD_REACTORS
330
32
102
}
330
32
100
AcDbXrecord
280
     1
  1
1784sec5
  1
1784sec5*
  1
*
  1
*
 70
     0
  1
*
  1
*
  0
XRECORD
  5
68
102
{ACAD_REACTORS
330
32
102
}
330
32
100
AcDbXrecord
280
     1
  1
1947
  1
1947*
  1
*
  1
*
 70
     0
  1
*
  1
*
  0
XRECORD
  5
69
102
{ACAD_REACTORS
330
32
102
}
330
32
100
AcDbXrecord
280
     1
  1
1aukstas
  1
*1a*,ASYS,*Tar*
  1
*
  1
*
 70
     0
  1
*
  1
*
  0
XRECORD
  5
6A
102
{ACAD_REACTORS
330
32
102
}
330
32
100
AcDbXrecord
280
     1
  1
1GRID
  1
*
  1
*
  1
*
 70
    16
  1
*
  1
*
  0
XRECORD
  5
6B
102
{ACAD_REACTORS
330
32
102
}
330
32
100
AcDbXrecord
280
     1
  1
1k
  1
1k*
  1
*
  1
*
 70
     0
  1
*
  1
*
  0
XRECORD
  5
6C
102
{ACAD_REACTORS
330
32
102
}
330
32
100
AcDbXrecord
280
     1
  1
1korrus
  1
1k*
  1
*
  1
*
 70
     0
  1
*
  1
*
  0
XRECORD
  5
6D
102
{ACAD_REACTORS
330
32
102
}
330
32
100
AcDbXrecord
280
     1
  1
1puse
  1
1_6*
  1
*
  1
*
 70
     0
  1
*
  1
*
  0
XRECORD
  5
6E
102
{ACAD_REACTORS
330
32
102
}
330
32
100
AcDbXrecord
280
     1
  1
1V
  1
*
  1
*
  1
*
 70
     4
  1
*
  1
*
  0
XRECORD
  5
6F
102
{ACAD_REACTORS
330
32
102
}
330
32
100
AcDbXrecord
280
     1
  1
2
  1
2*
  1
*
  1
*
 70
     0
  1
*
  1
*
  0
XRECORD
  5
70
102
{ACAD_REACTORS
330
32
102
}
330
32
100
AcDbXrecord
280
     1
  1
2 KORRUS
  1
2K *
  1
*
  1
*
 70
     0
  1
*
  1
*
  0
XRECORD
  5
71
102
{ACAD_REACTORS
330
32
102
}
330
32
100
AcDbXrecord
280
     1
  1
2 SPACE PLAN
  1
??????_?S?????
  1
*
  1
*
 70
     0
  1
*
  1
*
  0
XRECORD
  5
72
102
{ACAD_REACTORS
330
32
102
}
330
32
100
AcDbXrecord
280
     1
  1
200
  1
*
  1
*
  1
*
 70
    16
  1
*
  1
*
  0
XRECORD
  5
73
102
{ACAD_REACTORS
330
32
102
}
330
32
100
AcDbXrecord
280
     1
  1
218
  1
*218*
  1
*
  1
*
 70
     0
  1
*
  1
*
  0
XRECORD
  5
74
102
{ACAD_REACTORS
330
32
102
}
330
32
100
AcDbXrecord
280
     1
  1
220g
  1
*220*
  1
*
  1
*
 70
     0
  1
*
  1
*
  0
XRECORD
  5
75
102
{ACAD_REACTORS
330
32
102
}
330
32
100
AcDbXrecord
280
     1
  1
250
  1
*
  1
*
  1
*
 70
    16
  1
*
  1
*
  0
XRECORD
  5
76
102
{ACAD_REACTORS
330
32
102
}
330
32
100
AcDbXrecord
280
     1
  1
2AUKSTAS
  1
*2a*,ASYS,*Tar*
  1
*
  1
*
 70
     0
  1
*
  1
*
  0
XRECORD
  5
77
102
{ACAD_REACTORS
330
32
102
}
330
32
100
AcDbXrecord
280
     1
  1
2d
  1
*
  1
*
  1
*
 70
  3072
  1
*
  1
*
  0
XRECORD
  5
78
102
{ACAD_REACTORS
330
32
102
}
330
32
100
AcDbXrecord
280
     1
  1
2DPLAN
  1
2D*
  1
*
  1
*
 70
     0
  1
*
  1
*
  0
XRECORD
  5
79
102
{ACAD_REACTORS
330
32
102
}
330
32
100
AcDbXrecord
280
     1
  1
2k
  1
2k*
  1
*
  1
*
 70
     0
  1
*
  1
*
  0
XRECORD
  5
7A
102
{ACAD_REACTORS
330
32
102
}
330
32
100
AcDbXrecord
280
     1
  1
2puse
  1
11*
  1
*
  1
*
 70
     0
  1
*
  1
*
  0
XRECORD
  5
7B
102
{ACAD_REACTORS
330
32
102
}
330
32
100
AcDbXrecord
280
     1
  1
3 CEILING
  1
??????_??C????
  1
*
  1
*
 70
     0
  1
*
  1
*
  0
XRECORD
  5
7C
102
{ACAD_REACTORS
330
32
102
}
330
32
100
AcDbXrecord
280
     1
  1
300
  1
*
  1
*
  1
*
 70
    16
  1
*
  1
*
  0
XRECORD
  5
7D
102
{ACAD_REACTORS
330
32
102
}
330
32
100
AcDbXrecord
280
     1
  1
300-1
  1
*
  1
*
  1
*
 70
    16
  1
*
  1
*
  0
XRECORD
  5
7E
102
{ACAD_REACTORS
330
32
102
}
330
32
100
AcDbXrecord
280
     1
  1
3845-000
  1
22-external-walls----------------------------------------
  1
*
  1
*
 70
     1
  1
*
  1
*
  0
XRECORD
  5
7F
102
{ACAD_REACTORS
330
32
102
}
330
32
100
AcDbXrecord
280
     1
  1
4
  1
*521*
  1
*
  1
*
 70
     0
  1
*
  1
*
  0
XRECORD
  5
80
102
{ACAD_REACTORS
330
32
102
}
330
32
100
AcDbXrecord
280
     1
  1
4 ELECTRIC
  1
??????_???E???
  1
*
  1
*
 70
     0
  1
*
  1
*
  0
XRECORD
  5
81
102
{ACAD_REACTORS
330
32
102
}
330
32
100
AcDbXrecord
280
     1
  1
4021
  1
4021*
  1
*
  1
*
 70
     0
  1
*
  1
*
  0
XRECORD
  5
82
102
{ACAD_REACTORS
330
32
102
}
330
32
100
AcDbXrecord
280
     1
  1
5 DEMO
  1
??????_????D??
  1
*
  1
*
 70
     0
  1
*
  1
*
  0
XRECORD
  5
83
102
{ACAD_REACTORS
330
32
102
}
330
32
100
AcDbXrecord
280
     1
  1
6 LAYER 1
  1
??????_?????1?
  1
*
  1
*
 70
     0
  1
*
  1
*
  0
XRECORD
  5
84
102
{ACAD_REACTORS
330
32
102
}
330
32
100
AcDbXrecord
280
     1
  1
7 LAYER 2
  1
??????_??????2
  1
*
  1
*
 70
     0
  1
*
  1
*
  0
XRECORD
  5
85
102
{ACAD_REACTORS
330
32
102
}
330
32
100
AcDbXrecord
280
     1
  1
720
  1
*720g*
  1
*
  1
*
 70
     0
  1
*
  1
*
  0
XRECORD
  5
86
102
{ACAD_REACTORS
330
32
102
}
330
32
100
AcDbXrecord
280
     1
  1
720g
  1
*720*
  1
*
  1
*
 70
     0
  1
*
  1
*
  0
XRECORD
  5
87
102
{ACAD_REACTORS
330
32
102
}
330
32
100
AcDbXrecord
280
     1
  1
8
  1
*
  1
8
  1
*
 70
     0
  1
*
  1
*
  0
XRECORD
  5
88
102
{ACAD_REACTORS
330
32
102
}
330
32
100
AcDbXrecord
280
     1
  1
9
  1
*
  1
9
  1
*
 70
     0
  1
*
  1
*
  0
XRECORD
  5
89
102
{ACAD_REACTORS
330
32
102
}
330
32
100
AcDbXrecord
280
     1
  1
96
  1
*96
  1
*
  1
*
 70
     0
  1
*
  1
*
  0
XRECORD
  5
8A
102
{ACAD_REACTORS
330
32
102
}
330
32
100
AcDbXrecord
280
     1
  1
_4021
  1
*4021*
  1
*
  1
*
 70
     0
  1
*
  1
*
  0
XRECORD
  5
8B
102
{ACAD_REACTORS
330
32
102
}
330
32
100
AcDbXrecord
280
     1
  1
__E1
  1
*E1*
  1
*
  1
*
 70
     0
  1
*
  1
*
  0
XRECORD
  5
8C
102
{ACAD_REACTORS
330
32
102
}
330
32
100
AcDbXrecord
280
     1
  1
__E2
  1
*E2*
  1
*
  1
*
 70
     0
  1
*
  1
*
  0
XRECORD
  5
8D
102
{ACAD_REACTORS
330
32
102
}
330
32
100
AcDbXrecord
280
     1
  1
__E3
  1
*E3*
  1
*
  1
*
 70
     0
  1
*
  1
*
  0
XRECORD
  5
8E
102
{ACAD_REACTORS
330
32
102
}
330
32
100
AcDbXrecord
280
     1
  1
__E6
  1
*E6*
  1
*
  1
*
 70
     0
  1
*
  1
*
  0
XRECORD
  5
8F
102
{ACAD_REACTORS
330
32
102
}
330
32
100
AcDbXrecord
280
     1
  1
_all
  1
*
  1
*
  1
*
 70
     0
  1
*
  1
*
  0
XRECORD
  5
90
102
{ACAD_REACTORS
330
32
102
}
330
32
100
AcDbXrecord
280
     1
  1
_arch
  1
A-*
  1
*
  1
*
 70
     0
  1
*
  1
*
  0
XRECORD
  5
91
102
{ACAD_REACTORS
330
32
102
}
330
32
100
AcDbXrecord
280
     1
  1
_AXIS
  1
*axis*
  1
*
  1
*
 70
     0
  1
*
  1
*
  0
XRECORD
  5
92
102
{ACAD_REACTORS
330
32
102
}
330
32
100
AcDbXrecord
280
     1
  1
_BORT
  1
BORT*
  1
*
  1
*
 70
     0
  1
*
  1
*
  0
XRECORD
  5
93
102
{ACAD_REACTORS
330
32
102
}
330
32
100
AcDbXrecord
280
     1
  1
_BR
  1
*br*
  1
*
  1
*
 70
     0
  1
*
  1
*
  0
XRECORD
  5
94
102
{ACAD_REACTORS
330
32
102
}
330
32
100
AcDbXrecord
280
     1
  1
_Building 3
  1
*bld3*
  1
*
  1
*
 70
     0
  1
*
  1
*
  0
XRECORD
  5
95
102
{ACAD_REACTORS
330
32
102
}
330
32
100
AcDbXrecord
280
     1
  1
_color6
  1
*
  1
6
  1
*
 70
     0
  1
*
  1
*
  0
XRECORD
  5
96
102
{ACAD_REACTORS
330
32
102
}
330
32
100
AcDbXrecord
280
     1
  1
_DIM
  1
*dim*
  1
*
  1
*
 70
     0
  1
*
  1
*
  0
XRECORD
  5
97
102
{ACAD_REACTORS
330
32
102
}
330
32
100
AcDbXrecord
280
     1
  1
_External Works
  1
*o-*
  1
*
  1
*
 70
     0
  1
*
  1
*
  0
XRECORD
  5
98
102
{ACAD_REACTORS
330
32
102
}
330
32
100
AcDbXrecord
280
     1
  1
_first
  1
*01*
  1
*
  1
*
 70
     0
  1
*
  1
*
  0
XRECORD
  5
99
102
{ACAD_REACTORS
330
32
102
}
330
32
100
AcDbXrecord
280
     1
  1
_First Floor
  1
*01*
  1
*
  1
*
 70
     0
  1
*
  1
*
  0
XRECORD
  5
9A
102
{ACAD_REACTORS
330
32
102
}
330
32
100
AcDbXrecord
280
     1
  1
_ground
  1
*00*
  1
*
  1
*
 70
     0
  1
*
  1
*
  0
XRECORD
  5
9B
102
{ACAD_REACTORS
330
32
102
}
330
32
100
AcDbXrecord
280
     1
  1
_Ground Floor
  1
*-00*
  1
*
  1
*
 70
     0
  1
*
  1
*
  0
XRECORD
  5
9C
102
{ACAD_REACTORS
330
32
102
}
330
32
100
AcDbXrecord
280
     1
  1
_h
  1
*_H
  1
*
  1
*
 70
     0
  1
*
  1
*
  0
XRECORD
  5
9D
102
{ACAD_REACTORS
330
32
102
}
330
32
100
AcDbXrecord
280
     1
  1
_Hatching
  1
*hat*
  1
*
  1
*
 70
     0
  1
*
  1
*
  0
XRECORD
  5
9E
102
{ACAD_REACTORS
330
32
102
}
330
32
100
AcDbXrecord
280
     1
  1
_KOORD
  1
*koord*
  1
*
  1
*
 70
     0
  1
*
  1
*
  0
XRECORD
  5
9F
102
{ACAD_REACTORS
330
32
102
}
330
32
100
AcDbXrecord
280
     1
  1
_New
  1
*-N
  1
*
  1
*
 70
     0
  1
*
  1
*
  0
XRECORD
  5
A0
102
{ACAD_REACTORS
330
32
102
}
330
32
100
AcDbXrecord
280
     1
  1
_OP
  1
*op*
  1
*
  1
*
 70
     0
  1
*
  1
*
  0
XRECORD
  5
A1
102
{ACAD_REACTORS
330
32
102
}
330
32
100
AcDbXrecord
280
     1
  1
_OP14
  1
*op14*
  1
*
  1
*
 70
     0
  1
*
  1
*
  0
XRECORD
  5
A2
102
{ACAD_REACTORS
330
32
102
}
330
32
100
AcDbXrecord
280
     1
  1
_OP15
  1
*op15*
  1
*
  1
*
 70
     0
  1
*
  1
*
  0
XRECORD
  5
A3
102
{ACAD_REACTORS
330
32
102
}
330
32
100
AcDbXrecord
280
     1
  1
_OP6
  1
*op6*
  1
*
  1
*
 70
     0
  1
*
  1
*
  0
XRECORD
  5
A4
102
{ACAD_REACTORS
330
32
102
}
330
32
100
AcDbXrecord
280
     1
  1
_PARK
  1
*PARK*
  1
*
  1
*
 70
     0
  1
*
  1
*
  0
XRECORD
  5
A5
102
{ACAD_REACTORS
330
32
102
}
330
32
100
AcDbXrecord
280
     1
  1
_PARK4
  1
*PARK4*
  1
*
  1
*
 70
     0
  1
*
  1
*
  0
XRECORD
  5
A6
102
{ACAD_REACTORS
330
32
102
}
330
32
100
AcDbXrecord
280
     1
  1
_PIKET
  1
*piket*
  1
*
  1
*
 70
     0
  1
*
  1
*
  0
XRECORD
  5
A7
102
{ACAD_REACTORS
330
32
102
}
330
32
100
AcDbXrecord
280
     1
  1
_PS
  1
*ps*
  1
*
  1
*
 70
     0
  1
*
  1
*
  0
XRECORD
  5
A8
102
{ACAD_REACTORS
330
32
102
}
330
32
100
AcDbXrecord
280
     1
  1
_Removed
  1
*Rem*
  1
*
  1
*
 70
     0
  1
*
  1
*
  0
XRECORD
  5
A9
102
{ACAD_REACTORS
330
32
102
}
330
32
100
AcDbXrecord
280
     1
  1
_roof
  1
*roof*
  1
*
  1
*
 70
     0
  1
*
  1
*
  0
XRECORD
  5
AA
102
{ACAD_REACTORS
330
32
102
}
330
32
100
AcDbXrecord
280
     1
  1
_SECTION
  1
*sec*
  1
*
  1
*
 70
     0
  1
*
  1
*
  0
XRECORD
  5
AB
102
{ACAD_REACTORS
330
32
102
}
330
32
100
AcDbXrecord
280
     1
  1
_SOL
  1
*SOL*
  1
*
  1
*
 70
     0
  1
*
  1
*
  0
XRECORD
  5
AC
102
{ACAD_REACTORS
330
32
102
}
330
32
100
AcDbXrecord
280
     1
  1
_SUP
  1
*sup*
  1
*
  1
*
 70
     0
  1
*
  1
*
  0
XRECORD
  5
AD
102
{ACAD_REACTORS
330
32
102
}
330
32
100
AcDbXrecord
280
     1
  1
_Text
  1
*Text*
  1
*
  1
*
 70
     0
  1
*
  1
*
  0
XRECORD
  5
AE
102
{ACAD_REACTORS
330
32
102
}
330
32
100
AcDbXrecord
280
     1
  1
_WIN
  1
*win*
  1
*
  1
*
 70
     0
  1
*
  1
*
  0
XRECORD
  5
AF
102
{ACAD_REACTORS
330
32
102
}
330
32
100
AcDbXrecord
280
     1
  1
_Without text
  1
*text*
  1
*
  1
*
 70
     0
  1
*
  1
*
  0
XRECORD
  5
B0
102
{ACAD_REACTORS
330
32
102
}
330
32
100
AcDbXrecord
280
     1
  1
A
  1
DETAL*
  1
*
  1
*
 70
     0
  1
*
  1
*
  0
XRECORD
  5
B1
102
{ACAD_REACTORS
330
32
102
}
330
32
100
AcDbXrecord
280
     1
  1
A layers
  1
A*
  1
*
  1
*
 70
     0
  1
*
  1
*
  0
XRECORD
  5
B2
102
{ACAD_REACTORS
330
32
102
}
330
32
100
AcDbXrecord
280
     1
  1
a-
  1
a-*
  1
*
  1
*
 70
     0
  1
*
  1
*
  0
XRECORD
  5
B3
102
{ACAD_REACTORS
330
32
102
}
330
32
100
AcDbXrecord
280
     1
  1
A-12101
  1
*
  1
*
  1
*
 70
    13
  1
*
  1
*
  0
XRECORD
  5
B4
102
{ACAD_REACTORS
330
32
102
}
330
32
100
AcDbXrecord
280
     1
  1
A0-FRAME
  1
A0*
  1
*
  1
*
 70
     0
  1
*
  1
*
  0
XRECORD
  5
B5
102
{ACAD_REACTORS
330
32
102
}
330
32
100
AcDbXrecord
280
     1
  1
A000D
  1
A000D*
  1
*
  1
*
 70
     0
  1
*
  1
*
  0
XRECORD
  5
B6
102
{ACAD_REACTORS
330
32
102
}
330
32
100
AcDbXrecord
280
     1
  1
A032G
  1
*a032G
  1
*
  1
*
 70
     0
  1
*
  1
*
  0
XRECORD
  5
B7
102
{ACAD_REACTORS
330
32
102
}
330
32
100
AcDbXrecord
280
     1
  1
a2
  1
a2*
  1
*
  1
*
 70
     0
  1
*
  1
*
  0
XRECORD
  5
B8
102
{ACAD_REACTORS
330
32
102
}
330
32
100
AcDbXrecord
280
     1
  1
a210h
  1
*a210h
  1
*
  1
*
 70
     0
  1
*
  1
*
  0
XRECORD
  5
B9
102
{ACAD_REACTORS
330
32
102
}
330
32
100
AcDbXrecord
280
     1
  1
a210h-50
  1
*a210h-50
  1
*
  1
*
 70
     0
  1
*
  1
*
  0
XRECORD
  5
BA
102
{ACAD_REACTORS
330
32
102
}
330
32
100
AcDbXrecord
280
     1
  1
a3
  1
a3*
  1
*
  1
*
 70
     0
  1
*
  1
*
  0
XRECORD
  5
BB
102
{ACAD_REACTORS
330
32
102
}
330
32
100
AcDbXrecord
280
     1
  1
a9
  1
a9*
  1
*
  1
*
 70
     0
  1
*
  1
*
  0
XRECORD
  5
BC
102
{ACAD_REACTORS
330
32
102
}
330
32
100
AcDbXrecord
280
     1
  1
AA
  1
AKS,M2AKS
  1
*
  1
*
 70
     0
  1
*
  1
*
  0
XRECORD
  5
BD
102
{ACAD_REACTORS
330
32
102
}
330
32
100
AcDbXrecord
280
     1
  1
aadressid
  1
aadr*
  1
*
  1
*
 70
     0
  1
*
  1
*
  0
XRECORD
  5
BE
102
{ACAD_REACTORS
330
32
102
}
330
32
100
AcDbXrecord
280
     1
  1
adler
  1
aadler*,xre*
  1
*
  1
*
 70
     0
  1
*
  1
*
  0
XRECORD
  5
BF
102
{ACAD_REACTORS
330
32
102
}
330
32
100
AcDbXrecord
280
     1
  1
AJUTINE
  1
AJUTINE *
  1
*
  1
*
 70
     0
  1
*
  1
*
  0
XRECORD
  5
C0
102
{ACAD_REACTORS
330
32
102
}
330
32
100
AcDbXrecord
280
     1
  1
ALEV07
  1
ALEV07*
  1
*
  1
*
 70
     0
  1
*
  1
*
  0
XRECORD
  5
C1
102
{ACAD_REACTORS
330
32
102
}
330
32
100
AcDbXrecord
280
     1
  1
ALL
  1
*
  1
*
  1
*
 70
     0
  1
*
  1
*
  0
XRECORD
  5
C2
102
{ACAD_REACTORS
330
32
102
}
330
32
100
AcDbXrecord
280
     1
  1
all on
  1
*
  1
*
  1
*
 70
     1
  1
*
  1
*
  0
XRECORD
  5
C3
102
{ACAD_REACTORS
330
32
102
}
330
32
100
AcDbXrecord
280
     1
  1
alles met_
  1
*_*
  1
*
  1
*
 70
     0
  1
*
  1
*
  0
XRECORD
  5
C4
102
{ACAD_REACTORS
330
32
102
}
330
32
100
AcDbXrecord
280
     1
  1
ALLTEXT
  1
*T*
  1
*
  1
*
 70
     0
  1
*
  1
*
  0
XRECORD
  5
C5
102
{ACAD_REACTORS
330
32
102
}
330
32
100
AcDbXrecord
280
     1
  1
ANGARS
  1
*ASIS
  1
*
  1
*
 70
     0
  1
*
  1
*
  0
XRECORD
  5
C6
102
{ACAD_REACTORS
330
32
102
}
330
32
100
AcDbXrecord
280
     1
  1
Antras
  1
2*
  1
*
  1
*
 70
  1024
  1
*
  1
*
  0
XRECORD
  5
C7
102
{ACAD_REACTORS
330
32
102
}
330
32
100
AcDbXrecord
280
     1
  1
AR
  1
*
  1
*
  1
*
 70
     0
  1
*
  1
*
  0
XRECORD
  5
C8
102
{ACAD_REACTORS
330
32
102
}
330
32
100
AcDbXrecord
280
     1
  1
ar_bwl
  1
*
  1
*
  1
*
 70
     3
  1
*
  1
*
  0
XRECORD
  5
C9
102
{ACAD_REACTORS
330
32
102
}
330
32
100
AcDbXrecord
280
     1
  1
ar_grd
  1
*
  1
*
  1
*
 70
     3
  1
*
  1
*
  0
XRECORD
  5
CA
102
{ACAD_REACTORS
330
32
102
}
330
32
100
AcDbXrecord
280
     1
  1
AR_GRID
  1
*
  1
*
  1
*
 70
     3
  1
*
  1
*
  0
XRECORD
  5
CB
102
{ACAD_REACTORS
330
32
102
}
330
32
100
AcDbXrecord
280
     1
  1
arch
  1
ar*
  1
*
  1
*
 70
     0
  1
*
  1
*
  0
XRECORD
  5
CC
102
{ACAD_REACTORS
330
32
102
}
330
32
100
AcDbXrecord
280
     1
  1
Architecture
  1
A*
  1
*
  1
*
 70
     0
  1
*
  1
*
  0
XRECORD
  5
CD
102
{ACAD_REACTORS
330
32
102
}
330
32
100
AcDbXrecord
280
     1
  1
AREA
  1
*AREA*
  1
*
  1
*
 70
     0
  1
*
  1
*
  0
XRECORD
  5
CE
102
{ACAD_REACTORS
330
32
102
}
330
32
100
AcDbXrecord
280
     1
  1
Arhitecture
  1
a*
  1
*
  1
*
 70
     0
  1
*
  1
*
  0
XRECORD
  5
CF
102
{ACAD_REACTORS
330
32
102
}
330
32
100
AcDbXrecord
280
     1
  1
ARM
  1
*ARM*
  1
*
  1
*
 70
     0
  1
*
  1
*
  0
XRECORD
  5
D0
102
{ACAD_REACTORS
330
32
102
}
330
32
100
AcDbXrecord
280
     1
  1
as
  1
as*
  1
*
  1
*
 70
     0
  1
*
  1
*
  0
XRECORD
  5
D1
102
{ACAD_REACTORS
330
32
102
}
330
32
100
AcDbXrecord
280
     1
  1
Asend
  1
*
  1
*
  1
*
 70
     0
  1
*
  1
*
  0
XRECORD
  5
D2
102
{ACAD_REACTORS
330
32
102
}
330
32
100
AcDbXrecord
280
     1
  1
asendiplaan
  1
as*
  1
*
  1
*
 70
     0
  1
*
  1
*
  0
XRECORD
  5
D3
102
{ACAD_REACTORS
330
32
102
}
330
32
100
AcDbXrecord
280
     1
  1
AUDITORIA
  1
AUD*
  1
*
  1
*
 70
     0
  1
*
  1
*
  0
XRECORD
  5
D4
102
{ACAD_REACTORS
330
32
102
}
330
32
100
AcDbXrecord
280
     1
  1
ax
  1
a*
  1
*
  1
*
 70
  3072
  1
*
  1
*
  0
XRECORD
  5
D5
102
{ACAD_REACTORS
330
32
102
}
330
32
100
AcDbXrecord
280
     1
  1
B
  1
*B
  1
*
  1
*
 70
     0
  1
*
  1
*
  0
XRECORD
  5
D6
102
{ACAD_REACTORS
330
32
102
}
330
32
100
AcDbXrecord
280
     1
  1
BACK BAR
  1
BACK*
  1
*
  1
*
 70
     0
  1
*
  1
*
  0
XRECORD
  5
D7
102
{ACAD_REACTORS
330
32
102
}
330
32
100
AcDbXrecord
280
     1
  1
BACKBAR
  1
BACKBAR*,2D*
  1
*
  1
*
 70
     0
  1
*
  1
*
  0
XRECORD
  5
D8
102
{ACAD_REACTORS
330
32
102
}
330
32
100
AcDbXrecord
280
     1
  1
BANQ'S
  1
BANQ*
  1
*
  1
*
 70
     0
  1
*
  1
*
  0
XRECORD
  5
D9
102
{ACAD_REACTORS
330
32
102
}
330
32
100
AcDbXrecord
280
     1
  1
BAR
  1
BAR*
  1
*
  1
*
 70
     0
  1
*
  1
*
  0
XRECORD
  5
DA
102
{ACAD_REACTORS
330
32
102
}
330
32
100
AcDbXrecord
280
     1
  1
bar-top
  1
*
  1
*
  1
*
 70
    16
  1
*
  1
*
  0
XRECORD
  5
DB
102
{ACAD_REACTORS
330
32
102
}
330
32
100
AcDbXrecord
280
     1
  1
bb
  1
rogarpissu,block
  1
*
  1
*
 70
     0
  1
*
  1
*
  0
XRECORD
  5
DC
102
{ACAD_REACTORS
330
32
102
}
330
32
100
AcDbXrecord
280
     1
  1
BDPF5R
  1
*BDPF*5*
  1
*
  1
*
 70
     0
  1
*
  1
*
  0
XRECORD
  5
DD
102
{ACAD_REACTORS
330
32
102
}
330
32
100
AcDbXrecord
280
     1
  1
BENCH
  1
BENCH*
  1
*
  1
*
 70
     0
  1
*
  1
*
  0
XRECORD
  5
DE
102
{ACAD_REACTORS
330
32
102
}
330
32
100
AcDbXrecord
280
     1
  1
BHWB
  1
*
  1
*
  1
*
 70
     0
  1
*
  1
*
  0
XRECORD
  5
DF
102
{ACAD_REACTORS
330
32
102
}
330
32
100
AcDbXrecord
280
     1
  1
blue
  1
*
  1
blue
  1
*
 70
     0
  1
*
  1
*
  0
XRECORD
  5
E0
102
{ACAD_REACTORS
330
32
102
}
330
32
100
AcDbXrecord
280
     1
  1
BOUNARY
  1
*BOUND*
  1
*
  1
*
 70
     0
  1
*
  1
*
  0
XRECORD
  5
E1
102
{ACAD_REACTORS
330
32
102
}
330
32
100
AcDbXrecord
280
     1
  1
BOUNDARY
  1
*
  1
*
  1
*
 70
    16
  1
*
  1
*
  0
XRECORD
  5
E2
102
{ACAD_REACTORS
330
32
102
}
330
32
100
AcDbXrecord
280
     1
  1
boundry-of
  1
*boundry
  1
*
  1
*
 70
     0
  1
*
  1
*
  0
XRECORD
  5
E3
102
{ACAD_REACTORS
330
32
102
}
330
32
100
AcDbXrecord
280
     1
  1
BUILDERS WORK
  1
*
  1
*
  1
*
 70
    16
  1
*
  1
*
  0
XRECORD
  5
E4
102
{ACAD_REACTORS
330
32
102
}
330
32
100
AcDbXrecord
280
     1
  1
BUILDERS-WORK
  1
*
  1
*
  1
*
 70
    16
  1
*
  1
*
  0
XRECORD
  5
E5
102
{ACAD_REACTORS
330
32
102
}
330
32
100
AcDbXrecord
280
     1
  1
BULKHEAD
  1
*BULKHEAD*
  1
*
  1
*
 70
     0
  1
*
  1
*
  0
XRECORD
  5
E6
102
{ACAD_REACTORS
330
32
102
}
330
32
100
AcDbXrecord
280
     1
  1
BV-LEASE
  1
*
  1
*
  1
*
 70
     0
  1
*
  1
*
  0
XRECORD
  5
E7
102
{ACAD_REACTORS
330
32
102
}
330
32
100
AcDbXrecord
280
     1
  1
bw
  1
a213*
  1
*
  1
*
 70
     0
  1
*
  1
*
  0
XRECORD
  5
E8
102
{ACAD_REACTORS
330
32
102
}
330
32
100
AcDbXrecord
280
     1
  1
bzik
  1
*
  1
*
  1
*
 70
   768
  1
*
  1
*
  0
XRECORD
  5
E9
102
{ACAD_REACTORS
330
32
102
}
330
32
100
AcDbXrecord
280
     1
  1
c
  1
c-*
  1
*
  1
*
 70
     0
  1
*
  1
*
  0
XRECORD
  5
EA
102
{ACAD_REACTORS
330
32
102
}
330
32
100
AcDbXrecord
280
     1
  1
C-
  1
C-*
  1
*
  1
*
 70
     0
  1
*
  1
*
  0
XRECORD
  5
EB
102
{ACAD_REACTORS
330
32
102
}
330
32
100
AcDbXrecord
280
     1
  1
C1
  1
*C1*
  1
*
  1
*
 70
     0
  1
*
  1
*
  0
XRECORD
  5
EC
102
{ACAD_REACTORS
330
32
102
}
330
32
100
AcDbXrecord
280
     1
  1
CANOPY
  1
CANOPY*
  1
*
  1
*
 70
     0
  1
*
  1
*
  0
XRECORD
  5
ED
102
{ACAD_REACTORS
330
32
102
}
330
32
100
AcDbXrecord
280
     1
  1
CART
  1
*CART*
  1
*
  1
*
 70
     0
  1
*
  1
*
  0
XRECORD
  5
EE
102
{ACAD_REACTORS
330
32
102
}
330
32
100
AcDbXrecord
280
     1
  1
CC
  1
*
  1
*
  1
*
 70
     1
  1
*
  1
*
  0
XRECORD
  5
EF
102
{ACAD_REACTORS
330
32
102
}
330
32
100
AcDbXrecord
280
     1
  1
Ceiling
  1
*clg*
  1
*
  1
*
 70
     0
  1
*
  1
*
  0
XRECORD
  5
F0
102
{ACAD_REACTORS
330
32
102
}
330
32
100
AcDbXrecord
280
     1
  1
CEILING LAYOUT
  1
A-CLG-*
  1
*
  1
*
 70
     0
  1
*
  1
*
  0
XRECORD
  5
F1
102
{ACAD_REACTORS
330
32
102
}
330
32
100
AcDbXrecord
280
     1
  1
CEILING PLAN
  1
*
  1
*
  1
*
 70
    16
  1
*
  1
*
  0
XRECORD
  5
F2
102
{ACAD_REACTORS
330
32
102
}
330
32
100
AcDbXrecord
280
     1
  1
cfp layers
  1
A*
  1
*
  1
*
 70
     0
  1
*
  1
*
  0
XRECORD
  5
F3
102
{ACAD_REACTORS
330
32
102
}
330
32
100
AcDbXrecord
280
     1
  1
CLAD
  1
*
  1
*
  1
*
 70
     0
  1
*
  1
*
  0
XRECORD
  5
F4
102
{ACAD_REACTORS
330
32
102
}
330
32
100
AcDbXrecord
280
     1
  1
coloour
  1
col*
  1
*
  1
*
 70
     0
  1
*
  1
*
  0
XRECORD
  5
F5
102
{ACAD_REACTORS
330
32
102
}
330
32
100
AcDbXrecord
280
     1
  1
colour
  1
col*
  1
*
  1
*
 70
     0
  1
*
  1
*
  0
XRECORD
  5
F6
102
{ACAD_REACTORS
330
32
102
}
330
32
100
AcDbXrecord
280
     1
  1
COLOURS
  1
*A080*
  1
*
  1
*
 70
     0
  1
*
  1
*
  0
XRECORD
  5
F7
102
{ACAD_REACTORS
330
32
102
}
330
32
100
AcDbXrecord
280
     1
  1
CONC
  1
*CONC*
  1
*
  1
*
 70
     0
  1
*
  1
*
  0
XRECORD
  5
F8
102
{ACAD_REACTORS
330
32
102
}
330
32
100
AcDbXrecord
280
     1
  1
CONCR
  1
*CONCR*
  1
*
  1
*
 70
     0
  1
*
  1
*
  0
XRECORD
  5
F9
102
{ACAD_REACTORS
330
32
102
}
330
32
100
AcDbXrecord
280
     1
  1
CONSERVITORY
  1
CON*,2D*
  1
*
  1
*
 70
     0
  1
*
  1
*
  0
XRECORD
  5
FA
102
{ACAD_REACTORS
330
32
102
}
330
32
100
AcDbXrecord
280
     1
  1
CORIAN
  1
*CORIAN*
  1
*
  1
*
 70
     0
  1
*
  1
*
  0
XRECORD
  5
FB
102
{ACAD_REACTORS
330
32
102
}
330
32
100
AcDbXrecord
280
     1
  1
cu dem
  1
dem*
  1
*
  1
*
 70
     0
  1
*
  1
*
  0
XRECORD
  5
FC
102
{ACAD_REACTORS
330
32
102
}
330
32
100
AcDbXrecord
280
     1
  1
cu s2
  1
s2*
  1
*
  1
*
 70
     0
  1
*
  1
*
  0
XRECORD
  5
FD
102
{ACAD_REACTORS
330
32
102
}
330
32
100
AcDbXrecord
280
     1
  1
cub
  1
*cub*
  1
*
  1
*
 70
     0
  1
*
  1
*
  0
XRECORD
  5
FE
102
{ACAD_REACTORS
330
32
102
}
330
32
100
AcDbXrecord
280
     1
  1
CURRENT
  1
*
  1
*
  1
*
 70
    16
  1
*
  1
*
  0
XRECORD
  5
FF
102
{ACAD_REACTORS
330
32
102
}
330
32
100
AcDbXrecord
280
     1
  1
CURVED GLASS
  1
*CURVED*
  1
*
  1
*
 70
     0
  1
*
  1
*
  0
XRECORD
  5
100
102
{ACAD_REACTORS
330
32
102
}
330
32
100
AcDbXrecord
280
     1
  1
curved walkway
  1
curved*
  1
*
  1
*
 70
     0
  1
*
  1
*
  0
XRECORD
  5
101
102
{ACAD_REACTORS
330
32
102
}
330
32
100
AcDbXrecord
280
     1
  1
CYAN
  1
*
  1
CYAN
  1
*
 70
     0
  1
*
  1
*
  0
XRECORD
  5
102
102
{ACAD_REACTORS
330
32
102
}
330
32
100
AcDbXrecord
280
     1
  1
D
  1
DUMR
  1
*
  1
*
 70
     0
  1
*
  1
*
  0
XRECORD
  5
103
102
{ACAD_REACTORS
330
32
102
}
330
32
100
AcDbXrecord
280
     1
  1
D1
  1
*D1*
  1
*
  1
*
 70
     0
  1
*
  1
*
  0
XRECORD
  5
104
102
{ACAD_REACTORS
330
32
102
}
330
32
100
AcDbXrecord
280
     1
  1
D_
  1
D_*
  1
*
  1
*
 70
     0
  1
*
  1
*
  0
XRECORD
  5
105
102
{ACAD_REACTORS
330
32
102
}
330
32
100
AcDbXrecord
280
     1
  1
dalaje
  1
dal*
  1
*
  1
*
 70
     0
  1
*
  1
*
  0
XRECORD
  5
106
102
{ACAD_REACTORS
330
32
102
}
330
32
100
AcDbXrecord
280
     1
  1
das
  1
*
  1
7
  1
*
 70
     0
  1
*
  1
*
  0
XRECORD
  5
107
102
{ACAD_REACTORS
330
32
102
}
330
32
100
AcDbXrecord
280
     1
  1
DAVE
  1
*
  1
*
  1
*
 70
     0
  1
*
  1
*
  0
XRECORD
  5
108
102
{ACAD_REACTORS
330
32
102
}
330
32
100
AcDbXrecord
280
     1
  1
demolition
  1
???????8*
  1
*
  1
*
 70
     0
  1
*
  1
*
  0
XRECORD
  5
109
102
{ACAD_REACTORS
330
32
102
}
330
32
100
AcDbXrecord
280
     1
  1
demolition work
  1
*
  1
*
  1
*
 70
    16
  1
*
  1
*
  0
XRECORD
  5
10A
102
{ACAD_REACTORS
330
32
102
}
330
32
100
AcDbXrecord
280
     1
  1
dfd
  1
*
  1
*
  1
*
 70
     0
  1
*
  1
*
  0
XRECORD
  5
10B
102
{ACAD_REACTORS
330
32
102
}
330
32
100
AcDbXrecord
280
     1
  1
dim
  1
dim*
  1
*
  1
*
 70
     0
  1
*
  1
*
  0
XRECORD
  5
10C
102
{ACAD_REACTORS
330
32
102
}
330
32
100
AcDbXrecord
280
     1
  1
dim11
  1
dim11*
  1
*
  1
*
 70
     0
  1
*
  1
*
  0
XRECORD
  5
10D
102
{ACAD_REACTORS
330
32
102
}
330
32
100
AcDbXrecord
280
     1
  1
dim12
  1
dim12*
  1
*
  1
*
 70
     0
  1
*
  1
*
  0
XRECORD
  5
10E
102
{ACAD_REACTORS
330
32
102
}
330
32
100
AcDbXrecord
280
     1
  1
Dimensions
  1
?????d*
  1
*
  1
*
 70
     1
  1
*
  1
*
  0
XRECORD
  5
10F
102
{ACAD_REACTORS
330
32
102
}
330
32
100
AcDbXrecord
280
     1
  1
dims
  1
*dims*
  1
*
  1
*
 70
     0
  1
*
  1
*
  0
XRECORD
  5
110
102
{ACAD_REACTORS
330
32
102
}
330
32
100
AcDbXrecord
280
     1
  1
DN
  1
DN*
  1
*
  1
*
 70
     0
  1
*
  1
*
  0
XRECORD
  5
111
102
{ACAD_REACTORS
330
32
102
}
330
32
100
AcDbXrecord
280
     1
  1
DOM
  1
DOM*
  1
*
  1
*
 70
     0
  1
*
  1
*
  0
XRECORD
  5
112
102
{ACAD_REACTORS
330
32
102
}
330
32
100
AcDbXrecord
280
     1
  1
Don't plot
  1
*
  1
*
  1
*
 70
  3072
  1
*
  1
*
  0
XRECORD
  5
113
102
{ACAD_REACTORS
330
32
102
}
330
32
100
AcDbXrecord
280
     1
  1
DOOR
  1
*DOOR*
  1
*
  1
*
 70
     0
  1
*
  1
*
  0
XRECORD
  5
114
102
{ACAD_REACTORS
330
32
102
}
330
32
100
AcDbXrecord
280
     1
  1
Drain
  1
d*
  1
*
  1
*
 70
     0
  1
*
  1
*
  0
XRECORD
  5
115
102
{ACAD_REACTORS
330
32
102
}
330
32
100
AcDbXrecord
280
     1
  1
drains
  1
*dra*
  1
*
  1
*
 70
     0
  1
*
  1
*
  0
XRECORD
  5
116
102
{ACAD_REACTORS
330
32
102
}
330
32
100
AcDbXrecord
280
     1
  1
DSD
  1
*720G*
  1
*
  1
*
 70
     0
  1
*
  1
*
  0
XRECORD
  5
117
102
{ACAD_REACTORS
330
32
102
}
330
32
100
AcDbXrecord
280
     1
  1
Ductwork
  1
*Duct*
  1
*
  1
*
 70
     0
  1
*
  1
*
  0
XRECORD
  5
118
102
{ACAD_REACTORS
330
32
102
}
330
32
100
AcDbXrecord
280
     1
  1
E - LAYERS
  1
*E_*
  1
*
  1
*
 70
     0
  1
*
  1
*
  0
XRECORD
  5
119
102
{ACAD_REACTORS
330
32
102
}
330
32
100
AcDbXrecord
280
     1
  1
E1
  1
*E1*
  1
*
  1
*
 70
     0
  1
*
  1
*
  0
XRECORD
  5
11A
102
{ACAD_REACTORS
330
32
102
}
330
32
100
AcDbXrecord
280
     1
  1
E2
  1
*E2*
  1
*
  1
*
 70
     0
  1
*
  1
*
  0
XRECORD
  5
11B
102
{ACAD_REACTORS
330
32
102
}
330
32
100
AcDbXrecord
280
     1
  1
E3
  1
*E3*
  1
*
  1
*
 70
     0
  1
*
  1
*
  0
XRECORD
  5
11C
102
{ACAD_REACTORS
330
32
102
}
330
32
100
AcDbXrecord
280
     1
  1
E4
  1
*E4*
  1
*
  1
*
 70
     0
  1
*
  1
*
  0
XRECORD
  5
11D
102
{ACAD_REACTORS
330
32
102
}
330
32
100
AcDbXrecord
280
     1
  1
EDDIE
  1
*EDDIE*
  1
*
  1
*
 70
     0
  1
*
  1
*
  0
XRECORD
  5
11E
102
{ACAD_REACTORS
330
32
102
}
330
32
100
AcDbXrecord
280
     1
  1
EI PLOTI
  1
*
  1
*
  1
*
 70
  3072
  1
*
  1
*
  0
XRECORD
  5
11F
102
{ACAD_REACTORS
330
32
102
}
330
32
100
AcDbXrecord
280
     1
  1
eiplo
  1
*
  1
*
  1
*
 70
  3072
  1
*
  1
*
  0
XRECORD
  5
120
102
{ACAD_REACTORS
330
32
102
}
330
32
100
AcDbXrecord
280
     1
  1
EIplot
  1
*
  1
*
  1
*
 70
  3072
  1
*
  1
*
  0
XRECORD
  5
121
102
{ACAD_REACTORS
330
32
102
}
330
32
100
AcDbXrecord
280
     1
  1
EKSEN
  1
*EKS*
  1
*
  1
*
 70
     0
  1
*
  1
*
  0
XRECORD
  5
122
102
{ACAD_REACTORS
330
32
102
}
330
32
100
AcDbXrecord
280
     1
  1
ELEC
  1
E*
  1
*
  1
*
 70
     0
  1
*
  1
*
  0
XRECORD
  5
123
102
{ACAD_REACTORS
330
32
102
}
330
32
100
AcDbXrecord
280
     1
  1
ELEVATION
  1
ELE*
  1
*
  1
*
 70
     0
  1
*
  1
*
  0
XRECORD
  5
124
102
{ACAD_REACTORS
330
32
102
}
330
32
100
AcDbXrecord
280
     1
  1
elevations
  1
A-ELEV-*
  1
*
  1
*
 70
     0
  1
*
  1
*
  0
XRECORD
  5
125
102
{ACAD_REACTORS
330
32
102
}
330
32
100
AcDbXrecord
280
     1
  1
endview
  1
*endview*
  1
*
  1
*
 70
     0
  1
*
  1
*
  0
XRECORD
  5
126
102
{ACAD_REACTORS
330
32
102
}
330
32
100
AcDbXrecord
280
     1
  1
entrance
  1
ent*
  1
*
  1
*
 70
     0
  1
*
  1
*
  0
XRECORD
  5
127
102
{ACAD_REACTORS
330
32
102
}
330
32
100
AcDbXrecord
280
     1
  1
esam
  1
*
  1
*
  1
*
 70
     0
  1
*
  1
*
  0
XRECORD
  5
128
102
{ACAD_REACTORS
330
32
102
}
330
32
100
AcDbXrecord
280
     1
  1
et trykkida välja
  1
*
  1
*
  1
*
 70
     0
  1
*
  1
*
  0
XRECORD
  5
129
102
{ACAD_REACTORS
330
32
102
}
330
32
100
AcDbXrecord
280
     1
  1
exg imported
  1
B*
  1
*
  1
*
 70
     0
  1
*
  1
*
  0
XRECORD
  5
12A
102
{ACAD_REACTORS
330
32
102
}
330
32
100
AcDbXrecord
280
     1
  1
EXISTING
  1
EX_PLN_0
  1
*
  1
*
 70
     0
  1
*
  1
*
  0
XRECORD
  5
12B
102
{ACAD_REACTORS
330
32
102
}
330
32
100
AcDbXrecord
280
     1
  1
F
  1
*
  1
*
  1
*
 70
     4
  1
*
  1
*
  0
XRECORD
  5
12C
102
{ACAD_REACTORS
330
32
102
}
330
32
100
AcDbXrecord
280
     1
  1
FEATURE
  1
FEATURE*
  1
*
  1
*
 70
     0
  1
*
  1
*
  0
XRECORD
  5
12D
102
{ACAD_REACTORS
330
32
102
}
330
32
100
AcDbXrecord
280
     1
  1
FENCE
  1
*FENCE*
  1
*
  1
*
 70
     0
  1
*
  1
*
  0
XRECORD
  5
12E
102
{ACAD_REACTORS
330
32
102
}
330
32
100
AcDbXrecord
280
     1
  1
FINISH
  1
*FINISH
  1
*
  1
*
 70
     0
  1
*
  1
*
  0
XRECORD
  5
12F
102
{ACAD_REACTORS
330
32
102
}
330
32
100
AcDbXrecord
280
     1
  1
finishes
  1
*finishes*
  1
*
  1
*
 70
     0
  1
*
  1
*
  0
XRECORD
  5
130
102
{ACAD_REACTORS
330
32
102
}
330
32
100
AcDbXrecord
280
     1
  1
FINISHES PLAN
  1
*
  1
*
  1
*
 70
    16
  1
*
  1
*
  0
XRECORD
  5
131
102
{ACAD_REACTORS
330
32
102
}
330
32
100
AcDbXrecord
280
     1
  1
FINISHES PLANS
  1
*
  1
*
  1
*
 70
    16
  1
*
  1
*
  0
XRECORD
  5
132
102
{ACAD_REACTORS
330
32
102
}
330
32
100
AcDbXrecord
280
     1
  1
FIRE
  1
*
  1
*
  1
*
 70
    16
  1
*
  1
*
  0
XRECORD
  5
133
102
{ACAD_REACTORS
330
32
102
}
330
32
100
AcDbXrecord
280
     1
  1
FIRE PLAN
  1
*
  1
*
  1
*
 70
     4
  1
*
  1
*
  0
XRECORD
  5
134
102
{ACAD_REACTORS
330
32
102
}
330
32
100
AcDbXrecord
280
     1
  1
Fire strategy
  1
Fire*
  1
*
  1
*
 70
     0
  1
*
  1
*
  0
XRECORD
  5
135
102
{ACAD_REACTORS
330
32
102
}
330
32
100
AcDbXrecord
280
     1
  1
FIRST FLOOR
  1
*-01
  1
*
  1
*
 70
     0
  1
*
  1
*
  0
XRECORD
  5
136
102
{ACAD_REACTORS
330
32
102
}
330
32
100
AcDbXrecord
280
     1
  1
First to Roof
  1
*F-R*
  1
*
  1
*
 70
     0
  1
*
  1
*
  0
XRECORD
  5
137
102
{ACAD_REACTORS
330
32
102
}
330
32
100
AcDbXrecord
280
     1
  1
FLAT GLASS
  1
*FLAT*
  1
*
  1
*
 70
     0
  1
*
  1
*
  0
XRECORD
  5
138
102
{ACAD_REACTORS
330
32
102
}
330
32
100
AcDbXrecord
280
     1
  1
FLOOR
  1
FLOOR*
  1
*
  1
*
 70
     0
  1
*
  1
*
  0
XRECORD
  5
139
102
{ACAD_REACTORS
330
32
102
}
330
32
100
AcDbXrecord
280
     1
  1
FLOOR PLAN
  1
A-FLR-*
  1
*
  1
*
 70
     0
  1
*
  1
*
  0
XRECORD
  5
13A
102
{ACAD_REACTORS
330
32
102
}
330
32
100
AcDbXrecord
280
     1
  1
FR
  1
*
  1
*
  1
*
 70
     4
  1
*
  1
*
  0
XRECORD
  5
13B
102
{ACAD_REACTORS
330
32
102
}
330
32
100
AcDbXrecord
280
     1
  1
Fragment 2
  1
*
  1
*
  1
*
 70
     0
  1
*
  1
*
  0
XRECORD
  5
13C
102
{ACAD_REACTORS
330
32
102
}
330
32
100
AcDbXrecord
280
     1
  1
freeze
  1
*
  1
*
  1
*
 70
     4
  1
*
  1
*
  0
XRECORD
  5
13D
102
{ACAD_REACTORS
330
32
102
}
330
32
100
AcDbXrecord
280
     1
  1
FROS CUR VPORT
  1
LUCIEN
  1
*
  1
*
 70
    16
  1
*
  1
*
  0
XRECORD
  5
13E
102
{ACAD_REACTORS
330
32
102
}
330
32
100
AcDbXrecord
280
     1
  1
FROZ
  1
*
  1
*
  1
*
 70
     4
  1
*
  1
*
  0
XRECORD
  5
13F
102
{ACAD_REACTORS
330
32
102
}
330
32
100
AcDbXrecord
280
     1
  1
FROZ CUR VPORT
  1
*
  1
*
  1
*
 70
    16
  1
*
  1
*
  0
XRECORD
  5
140
102
{ACAD_REACTORS
330
32
102
}
330
32
100
AcDbXrecord
280
     1
  1
FROZ IN CURENT
  1
*
  1
*
  1
*
 70
    16
  1
*
  1
*
  0
XRECORD
  5
141
102
{ACAD_REACTORS
330
32
102
}
330
32
100
AcDbXrecord
280
     1
  1
frozen
  1
*
  1
*
  1
*
 70
     4
  1
*
  1
*
  0
XRECORD
  5
142
102
{ACAD_REACTORS
330
32
102
}
330
32
100
AcDbXrecord
280
     1
  1
frozen Layers
  1
*
  1
*
  1
*
 70
     4
  1
*
  1
*
  0
XRECORD
  5
143
102
{ACAD_REACTORS
330
32
102
}
330
32
100
AcDbXrecord
280
     1
  1
FRZ
  1
*
  1
*
  1
*
 70
     4
  1
*
  1
*
  0
XRECORD
  5
144
102
{ACAD_REACTORS
330
32
102
}
330
32
100
AcDbXrecord
280
     1
  1
Furniture
  1
f*
  1
*
  1
*
 70
     0
  1
*
  1
*
  0
XRECORD
  5
145
102
{ACAD_REACTORS
330
32
102
}
330
32
100
AcDbXrecord
280
     1
  1
furntext
  1
*t2
  1
*
  1
*
 70
     0
  1
*
  1
*
  0
XRECORD
  5
146
102
{ACAD_REACTORS
330
32
102
}
330
32
100
AcDbXrecord
280
     1
  1
furntext1
  1
*t1
  1
*
  1
*
 70
     0
  1
*
  1
*
  0
XRECORD
  5
147
102
{ACAD_REACTORS
330
32
102
}
330
32
100
AcDbXrecord
280
     1
  1
furntext2
  1
*t2
  1
*
  1
*
 70
     0
  1
*
  1
*
  0
XRECORD
  5
148
102
{ACAD_REACTORS
330
32
102
}
330
32
100
AcDbXrecord
280
     1
  1
furntext3
  1
*t3
  1
*
  1
*
 70
     0
  1
*
  1
*
  0
XRECORD
  5
149
102
{ACAD_REACTORS
330
32
102
}
330
32
100
AcDbXrecord
280
     1
  1
FY
  1
*
  1
*
  1
*
 70
     0
  1
*
  1
*
  0
XRECORD
  5
14A
102
{ACAD_REACTORS
330
32
102
}
330
32
100
AcDbXrecord
280
     1
  1
g
  1
g*
  1
*
  1
*
 70
     0
  1
*
  1
*
  0
XRECORD
  5
14B
102
{ACAD_REACTORS
330
32
102
}
330
32
100
AcDbXrecord
280
     1
  1
GA
  1
*
  1
*
  1
*
 70
     0
  1
*
  1
*
  0
XRECORD
  5
14C
102
{ACAD_REACTORS
330
32
102
}
330
32
100
AcDbXrecord
280
     1
  1
ga plan
  1
*
  1
*
  1
*
 70
    16
  1
*
  1
*
  0
XRECORD
  5
14D
102
{ACAD_REACTORS
330
32
102
}
330
32
100
AcDbXrecord
280
     1
  1
GAMCO
  1
GAM*
  1
*
  1
*
 70
     0
  1
*
  1
*
  0
XRECORD
  5
14E
102
{ACAD_REACTORS
330
32
102
}
330
32
100
AcDbXrecord
280
     1
  1
General
  1
y*
  1
*
  1
*
 70
     0
  1
*
  1
*
  0
XRECORD
  5
14F
102
{ACAD_REACTORS
330
32
102
}
330
32
100
AcDbXrecord
280
     1
  1
geo
  1
geo*
  1
*
  1
*
 70
     0
  1
*
  1
*
  0
XRECORD
  5
150
102
{ACAD_REACTORS
330
32
102
}
330
32
100
AcDbXrecord
280
     1
  1
geodeesia
  1
geo*
  1
*
  1
*
 70
     0
  1
*
  1
*
  0
XRECORD
  5
151
102
{ACAD_REACTORS
330
32
102
}
330
32
100
AcDbXrecord
280
     1
  1
git
  1
*
  1
magenta
  1
*
 70
     0
  1
*
  1
*
  0
XRECORD
  5
152
102
{ACAD_REACTORS
330
32
102
}
330
32
100
AcDbXrecord
280
     1
  1
GLASS
  1
*GLASS*
  1
*
  1
*
 70
     0
  1
*
  1
*
  0
XRECORD
  5
153
102
{ACAD_REACTORS
330
32
102
}
330
32
100
AcDbXrecord
280
     1
  1
GLASS RACK
  1
GLASSRACK*
  1
*
  1
*
 70
     0
  1
*
  1
*
  0
XRECORD
  5
154
102
{ACAD_REACTORS
330
32
102
}
330
32
100
AcDbXrecord
280
     1
  1
gondola
  1
*
  1
*
  1
*
 70
     0
  1
*
  1
*
  0
XRECORD
  5
155
102
{ACAD_REACTORS
330
32
102
}
330
32
100
AcDbXrecord
280
     1
  1
gp
  1
gp*
  1
*
  1
*
 70
     0
  1
*
  1
*
  0
XRECORD
  5
156
102
{ACAD_REACTORS
330
32
102
}
330
32
100
AcDbXrecord
280
     1
  1
gp- ära
  1
gp
  1
*
  1
*
 70
     3
  1
*
  1
*
  0
XRECORD
  5
157
102
{ACAD_REACTORS
330
32
102
}
330
32
100
AcDbXrecord
280
     1
  1
GREEN
  1
*
  1
GREEN
  1
*
 70
     0
  1
*
  1
*
  0
XRECORD
  5
158
102
{ACAD_REACTORS
330
32
102
}
330
32
100
AcDbXrecord
280
     1
  1
GREET
  1
GREET*
  1
*
  1
*
 70
     0
  1
*
  1
*
  0
XRECORD
  5
159
102
{ACAD_REACTORS
330
32
102
}
330
32
100
AcDbXrecord
280
     1
  1
grey
  1
*
  1
8
  1
*
 70
     0
  1
*
  1
*
  0
XRECORD
  5
15A
102
{ACAD_REACTORS
330
32
102
}
330
32
100
AcDbXrecord
280
     1
  1
grid
  1
1784grid-g$0$*
  1
*
  1
*
 70
     0
  1
*
  1
*
  0
XRECORD
  5
15B
102
{ACAD_REACTORS
330
32
102
}
330
32
100
AcDbXrecord
280
     1
  1
GRID 0FF
  1
*032G
  1
*
  1
*
 70
     0
  1
*
  1
*
  0
XRECORD
  5
15C
102
{ACAD_REACTORS
330
32
102
}
330
32
100
AcDbXrecord
280
     1
  1
grids
  1
*032g
  1
*
  1
*
 70
     0
  1
*
  1
*
  0
XRECORD
  5
15D
102
{ACAD_REACTORS
330
32
102
}
330
32
100
AcDbXrecord
280
     1
  1
gridtext102
  1
*
  1
*
  1
*
 70
     0
  1
*
  1
*
  0
XRECORD
  5
15E
102
{ACAD_REACTORS
330
32
102
}
330
32
100
AcDbXrecord
280
     1
  1
grnd
  1
1784grnd$0$*
  1
*
  1
*
 70
     0
  1
*
  1
*
  0
XRECORD
  5
15F
102
{ACAD_REACTORS
330
32
102
}
330
32
100
AcDbXrecord
280
     1
  1
GROUND FLOOR
  1
*-00
  1
*
  1
*
 70
     0
  1
*
  1
*
  0
XRECORD
  5
160
102
{ACAD_REACTORS
330
32
102
}
330
32
100
AcDbXrecord
280
     1
  1
Ground to First
  1
*G-F*
  1
*
  1
*
 70
     0
  1
*
  1
*
  0
XRECORD
  5
161
102
{ACAD_REACTORS
330
32
102
}
330
32
100
AcDbXrecord
280
     1
  1
Ground to Roof
  1
*G-R*
  1
*
  1
*
 70
     0
  1
*
  1
*
  0
XRECORD
  5
162
102
{ACAD_REACTORS
330
32
102
}
330
32
100
AcDbXrecord
280
     1
  1
HAIRDRESSER
  1
HD*
  1
*
  1
*
 70
     0
  1
*
  1
*
  0
XRECORD
  5
163
102
{ACAD_REACTORS
330
32
102
}
330
32
100
AcDbXrecord
280
     1
  1
haljastus
  1
ha*
  1
*
  1
*
 70
     0
  1
*
  1
*
  0
XRECORD
  5
164
102
{ACAD_REACTORS
330
32
102
}
330
32
100
AcDbXrecord
280
     1
  1
hand
  1
*rail*
  1
*
  1
*
 70
     0
  1
*
  1
*
  0
XRECORD
  5
165
102
{ACAD_REACTORS
330
32
102
}
330
32
100
AcDbXrecord
280
     1
  1
HARDWARE
  1
*HARD*
  1
*
  1
*
 70
     0
  1
*
  1
*
  0
XRECORD
  5
166
102
{ACAD_REACTORS
330
32
102
}
330
32
100
AcDbXrecord
280
     1
  1
HAT
  1
*HAT*
  1
*
  1
*
 70
     0
  1
*
  1
*
  0
XRECORD
  5
167
102
{ACAD_REACTORS
330
32
102
}
330
32
100
AcDbXrecord
280
     1
  1
hatch
  1
*
  1
*
  1
*
 70
    23
  1
*
  1
*
  0
XRECORD
  5
168
102
{ACAD_REACTORS
330
32
102
}
330
32
100
AcDbXrecord
280
     1
  1
hatch-off
  1
*hatch
  1
*
  1
*
 70
     3
  1
*
  1
*
  0
XRECORD
  5
169
102
{ACAD_REACTORS
330
32
102
}
330
32
100
AcDbXrecord
280
     1
  1
hoonestuskava
  1
hk*
  1
*
  1
*
 70
     0
  1
*
  1
*
  0
XRECORD
  5
16A
102
{ACAD_REACTORS
330
32
102
}
330
32
100
AcDbXrecord
280
     1
  1
HVAC
  1
H*
  1
*
  1
*
 70
     0
  1
*
  1
*
  0
XRECORD
  5
16B
102
{ACAD_REACTORS
330
32
102
}
330
32
100
AcDbXrecord
280
     1
  1
iden
  1
*iden
  1
*
  1
*
 70
     0
  1
*
  1
*
  0
XRECORD
  5
16C
102
{ACAD_REACTORS
330
32
102
}
330
32
100
AcDbXrecord
280
     1
  1
INDICATE THICK LINE OF BULKHEAD
  1
*
  1
*
  1
*
 70
    16
  1
*
  1
*
  0
XRECORD
  5
16D
102
{ACAD_REACTORS
330
32
102
}
330
32
100
AcDbXrecord
280
     1
  1
insulation
  1
*
  1
*
  1
*
 70
     0
  1
*
  1
*
  0
XRECORD
  5
16E
102
{ACAD_REACTORS
330
32
102
}
330
32
100
AcDbXrecord
280
     1
  1
jack
  1
~*#
  1
*
  1
*
 70
     0
  1
*
  1
*
  0
XRECORD
  5
16F
102
{ACAD_REACTORS
330
32
102
}
330
32
100
AcDbXrecord
280
     1
  1
JBHGVHG
  1
BAR*
  1
*
  1
*
 70
     0
  1
*
  1
*
  0
XRECORD
  5
170
102
{ACAD_REACTORS
330
32
102
}
330
32
100
AcDbXrecord
280
     1
  1
JETO
  1
0
  1
*
  1
*
 70
     0
  1
*
  1
*
  0
XRECORD
  5
171
102
{ACAD_REACTORS
330
32
102
}
330
32
100
AcDbXrecord
280
     1
  1
jhd
  1
jhd*
  1
*
  1
*
 70
     0
  1
*
  1
*
  0
XRECORD
  5
172
102
{ACAD_REACTORS
330
32
102
}
330
32
100
AcDbXrecord
280
     1
  1
John-Harrison
  1
W-M-T-*
  1
*
  1
*
 70
     0
  1
*
  1
*
  0
XRECORD
  5
173
102
{ACAD_REACTORS
330
32
102
}
330
32
100
AcDbXrecord
280
     1
  1
JOINERE SETTING OUT
  1
*
  1
*
  1
*
 70
    16
  1
*
  1
*
  0
XRECORD
  5
174
102
{ACAD_REACTORS
330
32
102
}
330
32
100
AcDbXrecord
280
     1
  1
KASUTUSEL
  1
*
  1
*
  1
*
 70
    13
  1
*
  1
*
  0
XRECORD
  5
175
102
{ACAD_REACTORS
330
32
102
}
330
32
100
AcDbXrecord
280
     1
  1
katus
  1
katus *
  1
*
  1
*
 70
     0
  1
*
  1
*
  0
XRECORD
  5
176
102
{ACAD_REACTORS
330
32
102
}
330
32
100
AcDbXrecord
280
     1
  1
KATUSEPLAAN
  1
KATUS
  1
*
  1
*
 70
     0
  1
*
  1
*
  0
XRECORD
  5
177
102
{ACAD_REACTORS
330
32
102
}
330
32
100
AcDbXrecord
280
     1
  1
KAYDIRAKLAR
  1
KAY*
  1
*
  1
*
 70
     0
  1
*
  1
*
  0
XRECORD
  5
178
102
{ACAD_REACTORS
330
32
102
}
330
32
100
AcDbXrecord
280
     1
  1
kaylar
  1
*kay*
  1
*
  1
*
 70
     0
  1
*
  1
*
  0
XRECORD
  5
179
102
{ACAD_REACTORS
330
32
102
}
330
32
100
AcDbXrecord
280
     1
  1
KENARLAR
  1
*KENAR
  1
*
  1
*
 70
     0
  1
*
  1
*
  0
XRECORD
  5
17A
102
{ACAD_REACTORS
330
32
102
}
330
32
100
AcDbXrecord
280
     1
  1
kiitoks
  1
kit*
  1
*
  1
*
 70
     0
  1
*
  1
*
  0
XRECORD
  5
17B
102
{ACAD_REACTORS
330
32
102
}
330
32
100
AcDbXrecord
280
     1
  1
KINNI
  1
*
  1
*
  1
*
 70
     3
  1
*
  1
*
  0
XRECORD
  5
17C
102
{ACAD_REACTORS
330
32
102
}
330
32
100
AcDbXrecord
280
     1
  1
KIRJANURK
  1
KN *
  1
*
  1
*
 70
     0
  1
*
  1
*
  0
XRECORD
  5
17D
102
{ACAD_REACTORS
330
32
102
}
330
32
100
AcDbXrecord
280
     1
  1
kitas
  1
k-*
  1
*
  1
*
 70
     0
  1
*
  1
*
  0
XRECORD
  5
17E
102
{ACAD_REACTORS
330
32
102
}
330
32
100
AcDbXrecord
280
     1
  1
KITCHEN
  1
KITCHEN*
  1
*
  1
*
 70
     0
  1
*
  1
*
  0
XRECORD
  5
17F
102
{ACAD_REACTORS
330
32
102
}
330
32
100
AcDbXrecord
280
     1
  1
KITCHEN PLAN
  1
*
  1
*
  1
*
 70
    16
  1
*
  1
*
  0
XRECORD
  5
180
102
{ACAD_REACTORS
330
32
102
}
330
32
100
AcDbXrecord
280
     1
  1
KITCHEN SETTING OUT
  1
*
  1
*
  1
*
 70
    16
  1
*
  1
*
  0
XRECORD
  5
181
102
{ACAD_REACTORS
330
32
102
}
330
32
100
AcDbXrecord
280
     1
  1
KONSOLLAR
  1
KONSOL*
  1
*
  1
*
 70
     0
  1
*
  1
*
  0
XRECORD
  5
182
102
{ACAD_REACTORS
330
32
102
}
330
32
100
AcDbXrecord
280
     1
  1
Koondvõrk
  1
*
  1
*
  1
*
 70
     0
  1
*
  1
*
  0
XRECORD
  5
183
102
{ACAD_REACTORS
330
32
102
}
330
32
100
AcDbXrecord
280
     1
  1
koord
  1
*koord*
  1
*
  1
*
 70
     0
  1
*
  1
*
  0
XRECORD
  5
184
102
{ACAD_REACTORS
330
32
102
}
330
32
100
AcDbXrecord
280
     1
  1
kr
  1
kr*
  1
*
  1
*
 70
     0
  1
*
  1
*
  0
XRECORD
  5
185
102
{ACAD_REACTORS
330
32
102
}
330
32
100
AcDbXrecord
280
     1
  1
L
  1
LUCIEN
  1
*
  1
*
 70
     0
  1
*
  1
*
  0
XRECORD
  5
186
102
{ACAD_REACTORS
330
32
102
}
330
32
100
AcDbXrecord
280
     1
  1
LABIEKARTOJUMS
  1
LB*
  1
*
  1
*
 70
     0
  1
*
  1
*
  0
XRECORD
  5
187
102
{ACAD_REACTORS
330
32
102
}
330
32
100
AcDbXrecord
280
     1
  1
LAHTI
  1
*
  1
*
  1
*
 70
     1
  1
*
  1
*
  0
XRECORD
  5
188
102
{ACAD_REACTORS
330
32
102
}
330
32
100
AcDbXrecord
280
     1
  1
Layer off
  1
*
  1
*
  1
*
 70
     3
  1
*
  1
*
  0
XRECORD
  5
189
102
{ACAD_REACTORS
330
32
102
}
330
32
100
AcDbXrecord
280
     1
  1
LIBRARY
  1
LIBRARY*
  1
*
  1
*
 70
     0
  1
*
  1
*
  0
XRECORD
  5
18A
102
{ACAD_REACTORS
330
32
102
}
330
32
100
AcDbXrecord
280
     1
  1
licencing
  1
*
  1
*
  1
*
 70
    16
  1
*
  1
*
  0
XRECORD
  5
18B
102
{ACAD_REACTORS
330
32
102
}
330
32
100
AcDbXrecord
280
     1
  1
lift
  1
lift*
  1
*
  1
*
 70
     0
  1
*
  1
*
  0
XRECORD
  5
18C
102
{ACAD_REACTORS
330
32
102
}
330
32
100
AcDbXrecord
280
     1
  1
LIGHT
  1
LIGHT*
  1
*
  1
*
 70
     0
  1
*
  1
*
  0
XRECORD
  5
18D
102
{ACAD_REACTORS
330
32
102
}
330
32
100
AcDbXrecord
280
     1
  1
Lighting
  1
light*
  1
*
  1
*
 70
     0
  1
*
  1
*
  0
XRECORD
  5
18E
102
{ACAD_REACTORS
330
32
102
}
330
32
100
AcDbXrecord
280
     1
  1
liik
  1
liik*
  1
*
  1
*
 70
     0
  1
*
  1
*
  0
XRECORD
  5
18F
102
{ACAD_REACTORS
330
32
102
}
330
32
100
AcDbXrecord
280
     1
  1
LINII
  1
LINI*
  1
*
  1
*
 70
     0
  1
*
  1
*
  0
XRECORD
  5
190
102
{ACAD_REACTORS
330
32
102
}
330
32
100
AcDbXrecord
280
     1
  1
lk
  1
*
  1
*
  1
*
 70
   256
  1
*
  1
*
  0
XRECORD
  5
191
102
{ACAD_REACTORS
330
32
102
}
330
32
100
AcDbXrecord
280
     1
  1
LOBBY
  1
LOBBY*
  1
*
  1
*
 70
     0
  1
*
  1
*
  0
XRECORD
  5
192
102
{ACAD_REACTORS
330
32
102
}
330
32
100
AcDbXrecord
280
     1
  1
LOBBY AND OFFICE
  1
LOBBY*,OFFICE
  1
*
  1
*
 70
     0
  1
*
  1
*
  0
XRECORD
  5
193
102
{ACAD_REACTORS
330
32
102
}
330
32
100
AcDbXrecord
280
     1
  1
LOCK
  1
-*
  1
*
  1
*
 70
   256
  1
*
  1
*
  0
XRECORD
  5
194
102
{ACAD_REACTORS
330
32
102
}
330
32
100
AcDbXrecord
280
     1
  1
locked
  1
*
  1
*
  1
*
 70
   256
  1
*
  1
*
  0
XRECORD
  5
195
102
{ACAD_REACTORS
330
32
102
}
330
32
100
AcDbXrecord
280
     1
  1
LUKKU
  1
*
  1
*
  1
*
 70
   257
  1
*
  1
*
  0
XRECORD
  5
196
102
{ACAD_REACTORS
330
32
102
}
330
32
100
AcDbXrecord
280
     1
  1
LÕIGE
  1
LÕIGE *
  1
*
  1
*
 70
     0
  1
*
  1
*
  0
XRECORD
  5
197
102
{ACAD_REACTORS
330
32
102
}
330
32
100
AcDbXrecord
280
     1
  1
M1
  1
*M1*
  1
*
  1
*
 70
     0
  1
*
  1
*
  0
XRECORD
  5
198
102
{ACAD_REACTORS
330
32
102
}
330
32
100
AcDbXrecord
280
     1
  1
magenta
  1
*
  1
magenta
  1
*
 70
     0
  1
*
  1
*
  0
XRECORD
  5
199
102
{ACAD_REACTORS
330
32
102
}
330
32
100
AcDbXrecord
280
     1
  1
Magna2000
  1
MAGNA2000$*
  1
*
  1
*
 70
     0
  1
*
  1
*
  0
XRECORD
  5
19A
102
{ACAD_REACTORS
330
32
102
}
330
32
100
AcDbXrecord
280
     1
  1
MDM1
  1
X0*
  1
*
  1
*
 70
   775
  1
*
  1
*
  0
XRECORD
  5
19B
102
{ACAD_REACTORS
330
32
102
}
330
32
100
AcDbXrecord
280
     1
  1
mech
  1
*mech*
  1
*
  1
*
 70
     0
  1
*
  1
*
  0
XRECORD
  5
19C
102
{ACAD_REACTORS
330
32
102
}
330
32
100
AcDbXrecord
280
     1
  1
MECHANICAL
  1
*MECH*
  1
*
  1
*
 70
     0
  1
*
  1
*
  0
XRECORD
  5
19D
102
{ACAD_REACTORS
330
32
102
}
330
32
100
AcDbXrecord
280
     1
  1
MEMBRANE
  1
*
  1
*
  1
*
 70
     0
  1
*
  1
*
  0
XRECORD
  5
19E
102
{ACAD_REACTORS
330
32
102
}
330
32
100
AcDbXrecord
280
     1
  1
moje
  1
A *, PS*
  1
*
  1
*
 70
     0
  1
*
  1
*
  0
XRECORD
  5
19F
102
{ACAD_REACTORS
330
32
102
}
330
32
100
AcDbXrecord
280
     1
  1
N
  1
N_*
  1
*
  1
*
 70
     0
  1
*
  1
*
  0
XRECORD
  5
1A0
102
{ACAD_REACTORS
330
32
102
}
330
32
100
AcDbXrecord
280
     1
  1
N_
  1
N_*
  1
*
  1
*
 70
     0
  1
*
  1
*
  0
XRECORD
  5
1A1
102
{ACAD_REACTORS
330
32
102
}
330
32
100
AcDbXrecord
280
     1
  1
ncw
  1
*
  1
*red
  1
*
 70
     0
  1
*
  1
*
  0
XRECORD
  5
1A2
102
{ACAD_REACTORS
330
32
102
}
330
32
100
AcDbXrecord
280
     1
  1
NERO
  1
NERO*
  1
*
  1
*
 70
     0
  1
*
  1
*
  0
XRECORD
  5
1A3
102
{ACAD_REACTORS
330
32
102
}
330
32
100
AcDbXrecord
280
     1
  1
No Nums
  1
~*#
  1
*
  1
*
 70
     0
  1
*
  1
*
  0
XRECORD
  5
1A4
102
{ACAD_REACTORS
330
32
102
}
330
32
100
AcDbXrecord
280
     1
  1
nofurn
  1
*_1,2,3
  1
*
  1
*
 70
     0
  1
*
  1
*
  0
XRECORD
  5
1A5
102
{ACAD_REACTORS
330
32
102
}
330
32
100
AcDbXrecord
280
     1
  1
nofurn1
  1
*_2
  1
*
  1
*
 70
     0
  1
*
  1
*
  0
XRECORD
  5
1A6
102
{ACAD_REACTORS
330
32
102
}
330
32
100
AcDbXrecord
280
     1
  1
nofurn2
  1
*_3
  1
*
  1
*
 70
     0
  1
*
  1
*
  0
XRECORD
  5
1A7
102
{ACAD_REACTORS
330
32
102
}
330
32
100
AcDbXrecord
280
     1
  1
NON XREF DEPENDANTS
  1
*DEMO*
  1
*
  1
*
 70
     0
  1
*
  1
*
  0
XRECORD
  5
1A8
102
{ACAD_REACTORS
330
32
102
}
330
32
100
AcDbXrecord
280
     1
  1
Nosuc
  1
N_*
  1
*
  1
*
 70
     0
  1
*
  1
*
  0
XRECORD
  5
1A9
102
{ACAD_REACTORS
330
32
102
}
330
32
100
AcDbXrecord
280
     1
  1
npl
  1
*
  1
*
  1
*
 70
  3072
  1
*
  1
*
  0
XRECORD
  5
1AA
102
{ACAD_REACTORS
330
32
102
}
330
32
100
AcDbXrecord
280
     1
  1
nurgapu
  1
*
  1
*
  1
*
 70
    13
  1
*
  1
*
  0
XRECORD
  5
1AB
102
{ACAD_REACTORS
330
32
102
}
330
32
100
AcDbXrecord
280
     1
  1
nõrkvool
  1
arvuti
  1
*
  1
*
 70
     0
  1
*
  1
*
  0
XRECORD
  5
1AC
102
{ACAD_REACTORS
330
32
102
}
330
32
100
AcDbXrecord
280
     1
  1
off
  1
*
  1
*
  1
*
 70
     3
  1
*
  1
*
  0
XRECORD
  5
1AD
102
{ACAD_REACTORS
330
32
102
}
330
32
100
AcDbXrecord
280
     1
  1
OFFICE
  1
*OFFICE*
  1
*
  1
*
 70
     0
  1
*
  1
*
  0
XRECORD
  5
1AE
102
{ACAD_REACTORS
330
32
102
}
330
32
100
AcDbXrecord
280
     1
  1
OFFICE FIRST FLOOR
  1
*-01
  1
*
  1
*
 70
     0
  1
*
  1
*
  0
XRECORD
  5
1AF
102
{ACAD_REACTORS
330
32
102
}
330
32
100
AcDbXrecord
280
     1
  1
on
  1
*
  1
*
  1
*
 70
     1
  1
*
  1
*
  0
XRECORD
  5
1B0
102
{ACAD_REACTORS
330
32
102
}
330
32
100
AcDbXrecord
280
     1
  1
on and thawed
  1
*
  1
*
  1
*
 70
    13
  1
*
  1
*
  0
XRECORD
  5
1B1
102
{ACAD_REACTORS
330
32
102
}
330
32
100
AcDbXrecord
280
     1
  1
onlayers
  1
*
  1
*
  1
*
 70
    13
  1
*
  1
*
  0
XRECORD
  5
1B2
102
{ACAD_REACTORS
330
32
102
}
330
32
100
AcDbXrecord
280
     1
  1
OP1
  1
*op1*
  1
*
  1
*
 70
     0
  1
*
  1
*
  0
XRECORD
  5
1B3
102
{ACAD_REACTORS
330
32
102
}
330
32
100
AcDbXrecord
280
     1
  1
OP2
  1
*op2*
  1
*
  1
*
 70
     0
  1
*
  1
*
  0
XRECORD
  5
1B4
102
{ACAD_REACTORS
330
32
102
}
330
32
100
AcDbXrecord
280
     1
  1
option 1
  1
1*
  1
*
  1
*
 70
     0
  1
*
  1
*
  0
XRECORD
  5
1B5
102
{ACAD_REACTORS
330
32
102
}
330
32
100
AcDbXrecord
280
     1
  1
option 2
  1
2*
  1
*
  1
*
 70
     0
  1
*
  1
*
  0
XRECORD
  5
1B6
102
{ACAD_REACTORS
330
32
102
}
330
32
100
AcDbXrecord
280
     1
  1
Option1
  1
A210G704_walls Internal
  1
*
  1
*
 70
     0
  1
*
  1
*
  0
XRECORD
  5
1B7
102
{ACAD_REACTORS
330
32
102
}
330
32
100
AcDbXrecord
280
     1
  1
option4
  1
option4*
  1
*
  1
*
 70
     0
  1
*
  1
*
  0
XRECORD
  5
1B8
102
{ACAD_REACTORS
330
32
102
}
330
32
100
AcDbXrecord
280
     1
  1
Option5
  1
??????05*
  1
*
  1
*
 70
     0
  1
*
  1
*
  0
XRECORD
  5
1B9
102
{ACAD_REACTORS
330
32
102
}
330
32
100
AcDbXrecord
280
     1
  1
ORIGINAL
  1
*
  1
*
  1
*
 70
    13
  1
*
  1
*
  0
XRECORD
  5
1BA
102
{ACAD_REACTORS
330
32
102
}
330
32
100
AcDbXrecord
280
     1
  1
out
  1
*out*
  1
*
  1
*
 70
     0
  1
*
  1
*
  0
XRECORD
  5
1BB
102
{ACAD_REACTORS
330
32
102
}
330
32
100
AcDbXrecord
280
     1
  1
Outer
  1
ert*
  1
*
  1
*
 70
     0
  1
*
  1
*
  0
XRECORD
  5
1BC
102
{ACAD_REACTORS
330
32
102
}
330
32
100
AcDbXrecord
280
     1
  1
outline
  1
*outline
  1
*
  1
*
 70
     0
  1
*
  1
*
  0
XRECORD
  5
1BD
102
{ACAD_REACTORS
330
32
102
}
330
32
100
AcDbXrecord
280
     1
  1
P
  1
P *
  1
*
  1
*
 70
     0
  1
*
  1
*
  0
XRECORD
  5
1BE
102
{ACAD_REACTORS
330
32
102
}
330
32
100
AcDbXrecord
280
     1
  1
P - LAYERS
  1
*P_*
  1
*
  1
*
 70
     0
  1
*
  1
*
  0
XRECORD
  5
1BF
102
{ACAD_REACTORS
330
32
102
}
330
32
100
AcDbXrecord
280
     1
  1
P _
  1
*P_*
  1
*
  1
*
 70
     0
  1
*
  1
*
  0
XRECORD
  5
1C0
102
{ACAD_REACTORS
330
32
102
}
330
32
100
AcDbXrecord
280
     1
  1
P-LAYERS
  1
*P_*
  1
*
  1
*
 70
     0
  1
*
  1
*
  0
XRECORD
  5
1C1
102
{ACAD_REACTORS
330
32
102
}
330
32
100
AcDbXrecord
280
     1
  1
PH
  1
PH*
  1
*
  1
*
 70
     0
  1
*
  1
*
  0
XRECORD
  5
1C2
102
{ACAD_REACTORS
330
32
102
}
330
32
100
AcDbXrecord
280
     1
  1
phase 1
  1
*01
  1
*
  1
*
 70
     0
  1
*
  1
*
  0
XRECORD
  5
1C3
102
{ACAD_REACTORS
330
32
102
}
330
32
100
AcDbXrecord
280
     1
  1
PHEALTH
  1
P-*
  1
*
  1
*
 70
     0
  1
*
  1
*
  0
XRECORD
  5
1C4
102
{ACAD_REACTORS
330
32
102
}
330
32
100
AcDbXrecord
280
     1
  1
PHIL
  1
*
  1
*
  1
*
 70
    16
  1
*
  1
*
  0
XRECORD
  5
1C5
102
{ACAD_REACTORS
330
32
102
}
330
32
100
AcDbXrecord
280
     1
  1
Piepl
  1
P_*
  1
*
  1
*
 70
     0
  1
*
  1
*
  0
XRECORD
  5
1C6
102
{ACAD_REACTORS
330
32
102
}
330
32
100
AcDbXrecord
280
     1
  1
PIPE
  1
P-*
  1
*
  1
*
 70
     0
  1
*
  1
*
  0
XRECORD
  5
1C7
102
{ACAD_REACTORS
330
32
102
}
330
32
100
AcDbXrecord
280
     1
  1
pipes
  1
pipe*
  1
*
  1
*
 70
     0
  1
*
  1
*
  0
XRECORD
  5
1C8
102
{ACAD_REACTORS
330
32
102
}
330
32
100
AcDbXrecord
280
     1
  1
Pipes1
  1
pipes1*
  1
*
  1
*
 70
     0
  1
*
  1
*
  0
XRECORD
  5
1C9
102
{ACAD_REACTORS
330
32
102
}
330
32
100
AcDbXrecord
280
     1
  1
Pipework
  1
*Pipe*
  1
*
  1
*
 70
     0
  1
*
  1
*
  0
XRECORD
  5
1CA
102
{ACAD_REACTORS
330
32
102
}
330
32
100
AcDbXrecord
280
     1
  1
pirmas
  1
K-*
  1
*
  1
*
 70
     0
  1
*
  1
*
  0
XRECORD
  5
1CB
102
{ACAD_REACTORS
330
32
102
}
330
32
100
AcDbXrecord
280
     1
  1
PIZZA
  1
PIZZA*,2D*
  1
*
  1
*
 70
     0
  1
*
  1
*
  0
XRECORD
  5
1CC
102
{ACAD_REACTORS
330
32
102
}
330
32
100
AcDbXrecord
280
     1
  1
pk 2d-plan
  1
*
  1
*
  1
*
 70
     3
  1
*
  1
*
  0
XRECORD
  5
1CD
102
{ACAD_REACTORS
330
32
102
}
330
32
100
AcDbXrecord
280
     1
  1
pl
  1
*
  1
*
  1
*
 70
  1024
  1
*
  1
*
  0
XRECORD
  5
1CE
102
{ACAD_REACTORS
330
32
102
}
330
32
100
AcDbXrecord
280
     1
  1
PL1
  1
PAUL
  1
*
  1
*
 70
     0
  1
*
  1
*
  0
XRECORD
  5
1CF
102
{ACAD_REACTORS
330
32
102
}
330
32
100
AcDbXrecord
280
     1
  1
PLAKALAR
  1
PLAKA*
  1
*
  1
*
 70
     0
  1
*
  1
*
  0
XRECORD
  5
1D0
102
{ACAD_REACTORS
330
32
102
}
330
32
100
AcDbXrecord
280
     1
  1
planas
  1
k-*
  1
*
  1
*
 70
     0
  1
*
  1
*
  0
XRECORD
  5
1D1
102
{ACAD_REACTORS
330
32
102
}
330
32
100
AcDbXrecord
280
     1
  1
PLINTH
  1
*PLINTH*
  1
*
  1
*
 70
     0
  1
*
  1
*
  0
XRECORD
  5
1D2
102
{ACAD_REACTORS
330
32
102
}
330
32
100
AcDbXrecord
280
     1
  1
PLINTHS
  1
*PLINTH*
  1
*
  1
*
 70
     0
  1
*
  1
*
  0
XRECORD
  5
1D3
102
{ACAD_REACTORS
330
32
102
}
330
32
100
AcDbXrecord
280
     1
  1
PLO
  1
*
  1
*
  1
*
 70
  1036
  1
*
  1
*
  0
XRECORD
  5
1D4
102
{ACAD_REACTORS
330
32
102
}
330
32
100
AcDbXrecord
280
     1
  1
plot
  1
*
  1
*
  1
*
 70
  1024
  1
*
  1
*
  0
XRECORD
  5
1D5
102
{ACAD_REACTORS
330
32
102
}
330
32
100
AcDbXrecord
280
     1
  1
plumbing
  1
*plumbing*
  1
*
  1
*
 70
     0
  1
*
  1
*
  0
XRECORD
  5
1D6
102
{ACAD_REACTORS
330
32
102
}
330
32
100
AcDbXrecord
280
     1
  1
PN
  1
PN_*
  1
*
  1
*
 70
     0
  1
*
  1
*
  0
XRECORD
  5
1D7
102
{ACAD_REACTORS
330
32
102
}
330
32
100
AcDbXrecord
280
     1
  1
PN_N
  1
PN_*N
  1
*
  1
*
 70
     0
  1
*
  1
*
  0
XRECORD
  5
1D8
102
{ACAD_REACTORS
330
32
102
}
330
32
100
AcDbXrecord
280
     1
  1
PN_P
  1
PN_*P
  1
*
  1
*
 70
     0
  1
*
  1
*
  0
XRECORD
  5
1D9
102
{ACAD_REACTORS
330
32
102
}
330
32
100
AcDbXrecord
280
     1
  1
porch
  1
porch*
  1
*
  1
*
 70
     0
  1
*
  1
*
  0
XRECORD
  5
1DA
102
{ACAD_REACTORS
330
32
102
}
330
32
100
AcDbXrecord
280
     1
  1
Power
  1
Power*
  1
*
  1
*
 70
     0
  1
*
  1
*
  0
XRECORD
  5
1DB
102
{ACAD_REACTORS
330
32
102
}
330
32
100
AcDbXrecord
280
     1
  1
PR
  1
X-NIVEL1*
  1
10
  1
*
 70
    13
  1
*
  1
*
  0
XRECORD
  5
1DC
102
{ACAD_REACTORS
330
32
102
}
330
32
100
AcDbXrecord
280
     1
  1
PR-TRASSID
  1
pr-*
  1
*
  1
*
 70
     0
  1
*
  1
*
  0
XRECORD
  5
1DD
102
{ACAD_REACTORS
330
32
102
}
330
32
100
AcDbXrecord
280
     1
  1
prep
  1
*prep*
  1
*
  1
*
 70
     0
  1
*
  1
*
  0
XRECORD
  5
1DE
102
{ACAD_REACTORS
330
32
102
}
330
32
100
AcDbXrecord
280
     1
  1
primary
  1
*primary*
  1
*
  1
*
 70
     0
  1
*
  1
*
  0
XRECORD
  5
1DF
102
{ACAD_REACTORS
330
32
102
}
330
32
100
AcDbXrecord
280
     1
  1
proj
  1
pr*
  1
*
  1
*
 70
     0
  1
*
  1
*
  0
XRECORD
  5
1E0
102
{ACAD_REACTORS
330
32
102
}
330
32
100
AcDbXrecord
280
     1
  1
proj-trassid
  1
pr*
  1
*
  1
*
 70
     0
  1
*
  1
*
  0
XRECORD
  5
1E1
102
{ACAD_REACTORS
330
32
102
}
330
32
100
AcDbXrecord
280
     1
  1
PROP
  1
PROP *
  1
*
  1
*
 70
     0
  1
*
  1
*
  0
XRECORD
  5
1E2
102
{ACAD_REACTORS
330
32
102
}
330
32
100
AcDbXrecord
280
     1
  1
prop builders work
  1
*
  1
*
  1
*
 70
    16
  1
*
  1
*
  0
XRECORD
  5
1E3
102
{ACAD_REACTORS
330
32
102
}
330
32
100
AcDbXrecord
280
     1
  1
proposed
  1
???????5*
  1
*
  1
*
 70
     0
  1
*
  1
*
  0
XRECORD
  5
1E4
102
{ACAD_REACTORS
330
32
102
}
330
32
100
AcDbXrecord
280
     1
  1
ps
  1
*ps
  1
*
  1
*
 70
     0
  1
*
  1
*
  0
XRECORD
  5
1E5
102
{ACAD_REACTORS
330
32
102
}
330
32
100
AcDbXrecord
280
     1
  1
PU
  1
PU *
  1
*
  1
*
 70
     0
  1
*
  1
*
  0
XRECORD
  5
1E6
102
{ACAD_REACTORS
330
32
102
}
330
32
100
AcDbXrecord
280
     1
  1
qq
  1
02bu*
  1
*
  1
*
 70
     0
  1
*
  1
*
  0
XRECORD
  5
1E7
102
{ACAD_REACTORS
330
32
102
}
330
32
100
AcDbXrecord
280
     1
  1
r
  1
11*
  1
*
  1
*
 70
     0
  1
*
  1
*
  0
XRECORD
  5
1E8
102
{ACAD_REACTORS
330
32
102
}
330
32
100
AcDbXrecord
280
     1
  1
R0
  1
*R0*
  1
*
  1
*
 70
     0
  1
*
  1
*
  0
XRECORD
  5
1E9
102
{ACAD_REACTORS
330
32
102
}
330
32
100
AcDbXrecord
280
     1
  1
R1
  1
*R1*
  1
*
  1
*
 70
     0
  1
*
  1
*
  0
XRECORD
  5
1EA
102
{ACAD_REACTORS
330
32
102
}
330
32
100
AcDbXrecord
280
     1
  1
R2
  1
*R2*
  1
*
  1
*
 70
     0
  1
*
  1
*
  0
XRECORD
  5
1EB
102
{ACAD_REACTORS
330
32
102
}
330
32
100
AcDbXrecord
280
     1
  1
R3
  1
*R3*
  1
*
  1
*
 70
     0
  1
*
  1
*
  0
XRECORD
  5
1EC
102
{ACAD_REACTORS
330
32
102
}
330
32
100
AcDbXrecord
280
     1
  1
rack
  1
*rack*
  1
*
  1
*
 70
     0
  1
*
  1
*
  0
XRECORD
  5
1ED
102
{ACAD_REACTORS
330
32
102
}
330
32
100
AcDbXrecord
280
     1
  1
RCP
  1
A-CLG-*
  1
*
  1
*
 70
     0
  1
*
  1
*
  0
XRECORD
  5
1EE
102
{ACAD_REACTORS
330
32
102
}
330
32
100
AcDbXrecord
280
     1
  1
RED
  1
*
  1
RED
  1
*
 70
     0
  1
*
  1
*
  0
XRECORD
  5
1EF
102
{ACAD_REACTORS
330
32
102
}
330
32
100
AcDbXrecord
280
     1
  1
reds
  1
*
  1
red
  1
*
 70
     0
  1
*
  1
*
  0
XRECORD
  5
1F0
102
{ACAD_REACTORS
330
32
102
}
330
32
100
AcDbXrecord
280
     1
  1
ref ceiling
  1
*
  1
*
  1
*
 70
    16
  1
*
  1
*
  0
XRECORD
  5
1F1
102
{ACAD_REACTORS
330
32
102
}
330
32
100
AcDbXrecord
280
     1
  1
ref ceiling 1
  1
*
  1
*
  1
*
 70
    16
  1
*
  1
*
  0
XRECORD
  5
1F2
102
{ACAD_REACTORS
330
32
102
}
330
32
100
AcDbXrecord
280
     1
  1
REFLECTED CEILING PLAN
  1
*
  1
*
  1
*
 70
    16
  1
*
  1
*
  0
XRECORD
  5
1F3
102
{ACAD_REACTORS
330
32
102
}
330
32
100
AcDbXrecord
280
     1
  1
REI ainult
  1
REI-
  1
*
  1
*
 70
     1
  1
*
  1
*
  0
XRECORD
  5
1F4
102
{ACAD_REACTORS
330
32
102
}
330
32
100
AcDbXrecord
280
     1
  1
RELECTED CEILING PLAN 012
  1
*
  1
*
  1
*
 70
    16
  1
*
  1
*
  0
XRECORD
  5
1F5
102
{ACAD_REACTORS
330
32
102
}
330
32
100
AcDbXrecord
280
     1
  1
REST
  1
REST*
  1
*
  1
*
 70
     0
  1
*
  1
*
  0
XRECORD
  5
1F6
102
{ACAD_REACTORS
330
32
102
}
330
32
100
AcDbXrecord
280
     1
  1
restaurant
  1
rest*
  1
*
  1
*
 70
     0
  1
*
  1
*
  0
XRECORD
  5
1F7
102
{ACAD_REACTORS
330
32
102
}
330
32
100
AcDbXrecord
280
     1
  1
rev
  1
*revc*
  1
*
  1
*
 70
     0
  1
*
  1
*
  0
XRECORD
  5
1F8
102
{ACAD_REACTORS
330
32
102
}
330
32
100
AcDbXrecord
280
     1
  1
Revs
  1
r*
  1
*
  1
*
 70
     0
  1
*
  1
*
  0
XRECORD
  5
1F9
102
{ACAD_REACTORS
330
32
102
}
330
32
100
AcDbXrecord
280
     1
  1
ROHELINE
  1
*
  1
GREEN
  1
*
 70
     0
  1
*
  1
*
  0
XRECORD
  5
1FA
102
{ACAD_REACTORS
330
32
102
}
330
32
100
AcDbXrecord
280
     1
  1
ROOFLIGHT
  1
ROOFLIGHT*
  1
*
  1
*
 70
     0
  1
*
  1
*
  0
XRECORD
  5
1FB
102
{ACAD_REACTORS
330
32
102
}
330
32
100
AcDbXrecord
280
     1
  1
rsfl
  1
a33*
  1
*
  1
*
 70
     0
  1
*
  1
*
  0
XRECORD
  5
1FC
102
{ACAD_REACTORS
330
32
102
}
330
32
100
AcDbXrecord
280
     1
  1
s
  1
s-*
  1
*
  1
*
 70
     0
  1
*
  1
*
  0
XRECORD
  5
1FD
102
{ACAD_REACTORS
330
32
102
}
330
32
100
AcDbXrecord
280
     1
  1
S - LAYERS
  1
*S_*
  1
*
  1
*
 70
     0
  1
*
  1
*
  0
XRECORD
  5
1FE
102
{ACAD_REACTORS
330
32
102
}
330
32
100
AcDbXrecord
280
     1
  1
s 1
  1
*
  1
7
  1
*
 70
     0
  1
*
  1
*
  0
XRECORD
  5
1FF
102
{ACAD_REACTORS
330
32
102
}
330
32
100
AcDbXrecord
280
     1
  1
saldymas
  1
*
  1
*
  1
*
 70
     0
  1
*
  1
*
  0
XRECORD
  5
200
102
{ACAD_REACTORS
330
32
102
}
330
32
100
AcDbXrecord
280
     1
  1
san
  1
*san*
  1
*
  1
*
 70
     0
  1
*
  1
*
  0
XRECORD
  5
201
102
{ACAD_REACTORS
330
32
102
}
330
32
100
AcDbXrecord
280
     1
  1
SANDSTONE
  1
SAND*
  1
*
  1
*
 70
     0
  1
*
  1
*
  0
XRECORD
  5
202
102
{ACAD_REACTORS
330
32
102
}
330
32
100
AcDbXrecord
280
     1
  1
sanitary
  1
*san*
  1
*
  1
*
 70
     0
  1
*
  1
*
  0
XRECORD
  5
203
102
{ACAD_REACTORS
330
32
102
}
330
32
100
AcDbXrecord
280
     1
  1
SCALE 100 TEXT
  1
*F
  1
*
  1
*
 70
     0
  1
*
  1
*
  0
XRECORD
  5
204
102
{ACAD_REACTORS
330
32
102
}
330
32
100
AcDbXrecord
280
     1
  1
SCALE 200 TEXT
  1
*G
  1
*
  1
*
 70
     0
  1
*
  1
*
  0
XRECORD
  5
205
102
{ACAD_REACTORS
330
32
102
}
330
32
100
AcDbXrecord
280
     1
  1
SCALE 50 TEXT
  1
*E
  1
*
  1
*
 70
     0
  1
*
  1
*
  0
XRECORD
  5
206
102
{ACAD_REACTORS
330
32
102
}
330
32
100
AcDbXrecord
280
     1
  1
screed plan
  1
*
  1
*
  1
*
 70
    16
  1
*
  1
*
  0
XRECORD
  5
207
102
{ACAD_REACTORS
330
32
102
}
330
32
100
AcDbXrecord
280
     1
  1
SEC
  1
*sec*
  1
*
  1
*
 70
     0
  1
*
  1
*
  0
XRECORD
  5
208
102
{ACAD_REACTORS
330
32
102
}
330
32
100
AcDbXrecord
280
     1
  1
secondary
  1
*secondary*
  1
*
  1
*
 70
     0
  1
*
  1
*
  0
XRECORD
  5
209
102
{ACAD_REACTORS
330
32
102
}
330
32
100
AcDbXrecord
280
     1
  1
section
  1
sec*
  1
*
  1
*
 70
     0
  1
*
  1
*
  0
XRECORD
  5
20A
102
{ACAD_REACTORS
330
32
102
}
330
32
100
AcDbXrecord
280
     1
  1
SELF SERVICE
  1
*SELF SERV*
  1
*
  1
*
 70
     0
  1
*
  1
*
  0
XRECORD
  5
20B
102
{ACAD_REACTORS
330
32
102
}
330
32
100
AcDbXrecord
280
     1
  1
servery
  1
servery*
  1
*
  1
*
 70
     0
  1
*
  1
*
  0
XRECORD
  5
20C
102
{ACAD_REACTORS
330
32
102
}
330
32
100
AcDbXrecord
280
     1
  1
SERVICES
  1
00*
  1
*
  1
*
 70
     0
  1
*
  1
*
  0
XRECORD
  5
20D
102
{ACAD_REACTORS
330
32
102
}
330
32
100
AcDbXrecord
280
     1
  1
SF
  1
SF*
  1
*
  1
*
 70
     0
  1
*
  1
*
  0
XRECORD
  5
20E
102
{ACAD_REACTORS
330
32
102
}
330
32
100
AcDbXrecord
280
     1
  1
shadow
  1
*shadow
  1
*
  1
*
 70
     0
  1
*
  1
*
  0
XRECORD
  5
20F
102
{ACAD_REACTORS
330
32
102
}
330
32
100
AcDbXrecord
280
     1
  1
shadow-off
  1
*SHADOW
  1
*
  1
*
 70
     0
  1
*
  1
*
  0
XRECORD
  5
210
102
{ACAD_REACTORS
330
32
102
}
330
32
100
AcDbXrecord
280
     1
  1
SHELF
  1
*SHEL*
  1
*
  1
*
 70
    12
  1
*
  1
*
  0
XRECORD
  5
211
102
{ACAD_REACTORS
330
32
102
}
330
32
100
AcDbXrecord
280
     1
  1
SHELVES
  1
*SHEL*
  1
*
  1
*
 70
     0
  1
*
  1
*
  0
XRECORD
  5
212
102
{ACAD_REACTORS
330
32
102
}
330
32
100
AcDbXrecord
280
     1
  1
shema
  1
*shema
  1
*
  1
*
 70
     0
  1
*
  1
*
  0
XRECORD
  5
213
102
{ACAD_REACTORS
330
32
102
}
330
32
100
AcDbXrecord
280
     1
  1
sienos
  1
Sie*
  1
*
  1
*
 70
     0
  1
*
  1
*
  0
XRECORD
  5
214
102
{ACAD_REACTORS
330
32
102
}
330
32
100
AcDbXrecord
280
     1
  1
SIGNAGE
  1
*
  1
*
  1
*
 70
     0
  1
*
  1
*
  0
XRECORD
  5
215
102
{ACAD_REACTORS
330
32
102
}
330
32
100
AcDbXrecord
280
     1
  1
SINBLU
  1
*
  1
blue
  1
*
 70
     0
  1
*
  1
*
  0
XRECORD
  5
216
102
{ACAD_REACTORS
330
32
102
}
330
32
100
AcDbXrecord
280
     1
  1
Sinergy
  1
_*
  1
*
  1
*
 70
     0
  1
*
  1
*
  0
XRECORD
  5
217
102
{ACAD_REACTORS
330
32
102
}
330
32
100
AcDbXrecord
280
     1
  1
SININE
  1
*
  1
BLUE
  1
*
 70
     0
  1
*
  1
*
  0
XRECORD
  5
218
102
{ACAD_REACTORS
330
32
102
}
330
32
100
AcDbXrecord
280
     1
  1
SININE1
  1
*
  1
BLUE
  1
*
 70
     0
  1
*
  1
*
  0
XRECORD
  5
219
102
{ACAD_REACTORS
330
32
102
}
330
32
100
AcDbXrecord
280
     1
  1
SIT
  1
SIT*
  1
*
  1
*
 70
     0
  1
*
  1
*
  0
XRECORD
  5
21A
102
{ACAD_REACTORS
330
32
102
}
330
32
100
AcDbXrecord
280
     1
  1
SITE
  1
SITE*
  1
*
  1
*
 70
     0
  1
*
  1
*
  0
XRECORD
  5
21B
102
{ACAD_REACTORS
330
32
102
}
330
32
100
AcDbXrecord
280
     1
  1
siyah
  1
*
  1
*
  1
*
 70
     4
  1
*
  1
siyah
  0
XRECORD
  5
21C
102
{ACAD_REACTORS
330
32
102
}
330
32
100
AcDbXrecord
280
     1
  1
skersinis
  1
Sk*
  1
*
  1
*
 70
     0
  1
*
  1
*
  0
XRECORD
  5
21D
102
{ACAD_REACTORS
330
32
102
}
330
32
100
AcDbXrecord
280
     1
  1
solid
  1
*hatch*
  1
*
  1
*
 70
     0
  1
*
  1
*
  0
XRECORD
  5
21E
102
{ACAD_REACTORS
330
32
102
}
330
32
100
AcDbXrecord
280
     1
  1
solid fills
  1
*-h
  1
*
  1
*
 70
     0
  1
*
  1
*
  0
XRECORD
  5
21F
102
{ACAD_REACTORS
330
32
102
}
330
32
100
AcDbXrecord
280
     1
  1
SPIRAL
  1
SPIRAL*
  1
*
  1
*
 70
     0
  1
*
  1
*
  0
XRECORD
  5
220
102
{ACAD_REACTORS
330
32
102
}
330
32
100
AcDbXrecord
280
     1
  1
SPOTLIGHTS
  1
SPOT*
  1
*
  1
*
 70
     0
  1
*
  1
*
  0
XRECORD
  5
221
102
{ACAD_REACTORS
330
32
102
}
330
32
100
AcDbXrecord
280
     1
  1
stairs
  1
*240*
  1
*
  1
*
 70
     0
  1
*
  1
*
  0
XRECORD
  5
222
102
{ACAD_REACTORS
330
32
102
}
330
32
100
AcDbXrecord
280
     1
  1
standard
  1
*###
  1
*
  1
*
 70
     0
  1
*
  1
*
  0
XRECORD
  5
223
102
{ACAD_REACTORS
330
32
102
}
330
32
100
AcDbXrecord
280
     1
  1
stoły
  1
MU*
  1
*
  1
*
 70
     0
  1
*
  1
*
  0
XRECORD
  5
224
102
{ACAD_REACTORS
330
32
102
}
330
32
100
AcDbXrecord
280
     1
  1
Stru
  1
s-*
  1
*
  1
*
 70
     0
  1
*
  1
*
  0
XRECORD
  5
225
102
{ACAD_REACTORS
330
32
102
}
330
32
100
AcDbXrecord
280
     1
  1
Structure
  1
s*
  1
*
  1
*
 70
     0
  1
*
  1
*
  0
XRECORD
  5
226
102
{ACAD_REACTORS
330
32
102
}
330
32
100
AcDbXrecord
280
     1
  1
STRUT
  1
*STRUT*
  1
*
  1
*
 70
     0
  1
*
  1
*
  0
XRECORD
  5
227
102
{ACAD_REACTORS
330
32
102
}
330
32
100
AcDbXrecord
280
     1
  1
STUBS
  1
*STUB*
  1
*
  1
*
 70
     0
  1
*
  1
*
  0
XRECORD
  5
228
102
{ACAD_REACTORS
330
32
102
}
330
32
100
AcDbXrecord
280
     1
  1
SUFLATORI
  1
*
  1
*
  1
*
 70
     1
  1
*
  1
*
  0
XRECORD
  5
229
102
{ACAD_REACTORS
330
32
102
}
330
32
100
AcDbXrecord
280
     1
  1
surv
  1
1784surv$0$*
  1
*
  1
*
 70
     0
  1
*
  1
*
  0
XRECORD
  5
22A
102
{ACAD_REACTORS
330
32
102
}
330
32
100
AcDbXrecord
280
     1
  1
SURVEY
  1
*
  1
*
  1
*
 70
     0
  1
*
  1
*
  0
XRECORD
  5
22B
102
{ACAD_REACTORS
330
32
102
}
330
32
100
AcDbXrecord
280
     1
  1
Susanne
  1
310,40,41,70,910,913,921,930,940
  1
*
  1
*
 70
     7
  1
*
  1
*
  0
XRECORD
  5
22C
102
{ACAD_REACTORS
330
32
102
}
330
32
100
AcDbXrecord
280
     1
  1
SWEET
  1
SWEET*
  1
*
  1
*
 70
     0
  1
*
  1
*
  0
XRECORD
  5
22D
102
{ACAD_REACTORS
330
32
102
}
330
32
100
AcDbXrecord
280
     1
  1
SYNERGY
  1
SYN-*
  1
*
  1
*
 70
     0
  1
*
  1
*
  0
XRECORD
  5
22E
102
{ACAD_REACTORS
330
32
102
}
330
32
100
AcDbXrecord
280
     1
  1
T1
  1
00#
  1
*
  1
*
 70
     0
  1
*
  1
*
  0
XRECORD
  5
22F
102
{ACAD_REACTORS
330
32
102
}
330
32
100
AcDbXrecord
280
     1
  1
TABLE
  1
*TABLE
  1
*
  1
*
 70
     0
  1
*
  1
*
  0
XRECORD
  5
230
102
{ACAD_REACTORS
330
32
102
}
330
32
100
AcDbXrecord
280
     1
  1
tags
  1
*220t
  1
*
  1
*
 70
     0
  1
*
  1
*
  0
XRECORD
  5
231
102
{ACAD_REACTORS
330
32
102
}
330
32
100
AcDbXrecord
280
     1
  1
TEACH
  1
TEACH*
  1
*
  1
*
 70
     0
  1
*
  1
*
  0
XRECORD
  5
232
102
{ACAD_REACTORS
330
32
102
}
330
32
100
AcDbXrecord
280
     1
  1
test
  1
*E1*
  1
*
  1
*
 70
     1
  1
*
  1
*
  0
XRECORD
  5
233
102
{ACAD_REACTORS
330
32
102
}
330
32
100
AcDbXrecord
280
     1
  1
TEXT
  1
*TEXT*
  1
*
  1
*
 70
     0
  1
*
  1
*
  0
XRECORD
  5
234
102
{ACAD_REACTORS
330
32
102
}
330
32
100
AcDbXrecord
280
     1
  1
TH
  1
*
  1
*
  1
*
 70
    12
  1
*
  1
*
  0
XRECORD
  5
235
102
{ACAD_REACTORS
330
32
102
}
330
32
100
AcDbXrecord
280
     1
  1
thaw
  1
*
  1
*
  1
*
 70
    12
  1
*
  1
*
  0
XRECORD
  5
236
102
{ACAD_REACTORS
330
32
102
}
330
32
100
AcDbXrecord
280
     1
  1
thawed
  1
*
  1
*
  1
*
 70
    12
  1
*
  1
*
  0
XRECORD
  5
237
102
{ACAD_REACTORS
330
32
102
}
330
32
100
AcDbXrecord
280
     1
  1
THP
  1
THP*
  1
*
  1
*
 70
     0
  1
*
  1
*
  0
XRECORD
  5
238
102
{ACAD_REACTORS
330
32
102
}
330
32
100
AcDbXrecord
280
     1
  1
tjp
  1
tjp*
  1
*
  1
*
 70
     0
  1
*
  1
*
  0
XRECORD
  5
239
102
{ACAD_REACTORS
330
32
102
}
330
32
100
AcDbXrecord
280
     1
  1
tone
  1
tone*
  1
*
  1
*
 70
     0
  1
*
  1
*
  0
XRECORD
  5
23A
102
{ACAD_REACTORS
330
32
102
}
330
32
100
AcDbXrecord
280
     1
  1
TOP
  1
*TOP*
  1
*
  1
*
 70
     0
  1
*
  1
*
  0
XRECORD
  5
23B
102
{ACAD_REACTORS
330
32
102
}
330
32
100
AcDbXrecord
280
     1
  1
Topo
  1
REI*
  1
*
  1
*
 70
     0
  1
*
  1
*
  0
XRECORD
  5
23C
102
{ACAD_REACTORS
330
32
102
}
330
32
100
AcDbXrecord
280
     1
  1
tr
  1
tr*
  1
*
  1
*
 70
     0
  1
*
  1
*
  0
XRECORD
  5
23D
102
{ACAD_REACTORS
330
32
102
}
330
32
100
AcDbXrecord
280
     1
  1
trassid
  1
tr*
  1
*
  1
*
 70
     0
  1
*
  1
*
  0
XRECORD
  5
23E
102
{ACAD_REACTORS
330
32
102
}
330
32
100
AcDbXrecord
280
     1
  1
trassid-txt
  1
ttxt*
  1
*
  1
*
 70
     0
  1
*
  1
*
  0
XRECORD
  5
23F
102
{ACAD_REACTORS
330
32
102
}
330
32
100
AcDbXrecord
280
     1
  1
tree
  1
*tree*
  1
*
  1
*
 70
     0
  1
*
  1
*
  0
XRECORD
  5
240
102
{ACAD_REACTORS
330
32
102
}
330
32
100
AcDbXrecord
280
     1
  1
tu_
  1
tu_*
  1
*
  1
*
 70
     0
  1
*
  1
*
  0
XRECORD
  5
241
102
{ACAD_REACTORS
330
32
102
}
330
32
100
AcDbXrecord
280
     1
  1
Tugiplaan
  1
*
  1
*
  1
*
 70
     0
  1
*
  1
*
  0
XRECORD
  5
242
102
{ACAD_REACTORS
330
32
102
}
330
32
100
AcDbXrecord
280
     1
  1
txt
  1
txt*
  1
*
  1
*
 70
     0
  1
*
  1
*
  0
XRECORD
  5
243
102
{ACAD_REACTORS
330
32
102
}
330
32
100
AcDbXrecord
280
     1
  1
UFR
  1
*
  1
*
  1
*
 70
    12
  1
*
  1
*
  0
XRECORD
  5
244
102
{ACAD_REACTORS
330
32
102
}
330
32
100
AcDbXrecord
280
     1
  1
UNITA
  1
*a
  1
*
  1
*
 70
     0
  1
*
  1
*
  0
XRECORD
  5
245
102
{ACAD_REACTORS
330
32
102
}
330
32
100
AcDbXrecord
280
     1
  1
UNITB
  1
*B
  1
*
  1
*
 70
     0
  1
*
  1
*
  0
XRECORD
  5
246
102
{ACAD_REACTORS
330
32
102
}
330
32
100
AcDbXrecord
280
     1
  1
UNITC
  1
*C
  1
*
  1
*
 70
     0
  1
*
  1
*
  0
XRECORD
  5
247
102
{ACAD_REACTORS
330
32
102
}
330
32
100
AcDbXrecord
280
     1
  1
UP
  1
UP*
  1
*
  1
*
 70
     0
  1
*
  1
*
  0
XRECORD
  5
248
102
{ACAD_REACTORS
330
32
102
}
330
32
100
AcDbXrecord
280
     1
  1
UPLO
  1
*
  1
*
  1
*
 70
  3084
  1
*
  1
*
  0
XRECORD
  5
249
102
{ACAD_REACTORS
330
32
102
}
330
32
100
AcDbXrecord
280
     1
  1
upper
  1
*
  1
*
  1
*
 70
    16
  1
*
  1
*
  0
XRECORD
  5
24A
102
{ACAD_REACTORS
330
32
102
}
330
32
100
AcDbXrecord
280
     1
  1
uus
  1
*
  1
*
  1
*
 70
     4
  1
*
  1
*
  0
XRECORD
  5
24B
102
{ACAD_REACTORS
330
32
102
}
330
32
100
AcDbXrecord
280
     1
  1
v31
  1
V31*
  1
*
  1
*
 70
     0
  1
*
  1
*
  0
XRECORD
  5
24C
102
{ACAD_REACTORS
330
32
102
}
330
32
100
AcDbXrecord
280
     1
  1
VAADE
  1
VAADE *
  1
*
  1
*
 70
     0
  1
*
  1
*
  0
XRECORD
  5
24D
102
{ACAD_REACTORS
330
32
102
}
330
32
100
AcDbXrecord
280
     1
  1
Valgus
  1
*
  1
*
  1
*
 70
     0
  1
*
  1
*
  0
XRECORD
  5
24E
102
{ACAD_REACTORS
330
32
102
}
330
32
100
AcDbXrecord
280
     1
  1
varem-proj-trassid
  1
vp-*
  1
*
  1
*
 70
     0
  1
*
  1
*
  0
XRECORD
  5
24F
102
{ACAD_REACTORS
330
32
102
}
330
32
100
AcDbXrecord
280
     1
  1
Vertikaal
  1
*
  1
*
  1
*
 70
     0
  1
*
  1
*
  0
XRECORD
  5
250
102
{ACAD_REACTORS
330
32
102
}
330
32
100
AcDbXrecord
280
     1
  1
vertikalinis
  1
*
  1
*
  1
*
 70
     0
  1
*
  1
*
  0
XRECORD
  5
251
102
{ACAD_REACTORS
330
32
102
}
330
32
100
AcDbXrecord
280
     1
  1
viewports
  1
*view*
  1
*
  1
*
 70
     0
  1
*
  1
*
  0
XRECORD
  5
252
102
{ACAD_REACTORS
330
32
102
}
330
32
100
AcDbXrecord
280
     1
  1
VK
  1
VK*
  1
*
  1
*
 70
     0
  1
*
  1
*
  0
XRECORD
  5
253
102
{ACAD_REACTORS
330
32
102
}
330
32
100
AcDbXrecord
280
     1
  1
vor
  1
vor*
  1
*
  1
*
 70
     0
  1
*
  1
*
  0
XRECORD
  5
254
102
{ACAD_REACTORS
330
32
102
}
330
32
100
AcDbXrecord
280
     1
  1
vormistus
  1
vor*
  1
*
  1
*
 70
     0
  1
*
  1
*
  0
XRECORD
  5
255
102
{ACAD_REACTORS
330
32
102
}
330
32
100
AcDbXrecord
280
     1
  1
vpl
  1
vpl*
  1
*
  1
*
 70
     0
  1
*
  1
*
  0
XRECORD
  5
256
102
{ACAD_REACTORS
330
32
102
}
330
32
100
AcDbXrecord
280
     1
  1
VS_01
  1
*_01*
  1
*
  1
*
 70
     0
  1
*
  1
*
  0
XRECORD
  5
257
102
{ACAD_REACTORS
330
32
102
}
330
32
100
AcDbXrecord
280
     1
  1
VS_02
  1
*_02*
  1
*
  1
*
 70
     0
  1
*
  1
*
  0
XRECORD
  5
258
102
{ACAD_REACTORS
330
32
102
}
330
32
100
AcDbXrecord
280
     1
  1
VS_03
  1
*_03*
  1
*
  1
*
 70
     0
  1
*
  1
*
  0
XRECORD
  5
259
102
{ACAD_REACTORS
330
32
102
}
330
32
100
AcDbXrecord
280
     1
  1
VS_04
  1
*_04*
  1
*
  1
*
 70
     0
  1
*
  1
*
  0
XRECORD
  5
25A
102
{ACAD_REACTORS
330
32
102
}
330
32
100
AcDbXrecord
280
     1
  1
VS_05
  1
*_05*
  1
*
  1
*
 70
     0
  1
*
  1
*
  0
XRECORD
  5
25B
102
{ACAD_REACTORS
330
32
102
}
330
32
100
AcDbXrecord
280
     1
  1
VS_06
  1
*_06*
  1
*
  1
*
 70
     0
  1
*
  1
*
  0
XRECORD
  5
25C
102
{ACAD_REACTORS
330
32
102
}
330
32
100
AcDbXrecord
280
     1
  1
VS_07
  1
*_07*
  1
*
  1
*
 70
     0
  1
*
  1
*
  0
XRECORD
  5
25D
102
{ACAD_REACTORS
330
32
102
}
330
32
100
AcDbXrecord
280
     1
  1
VS_08
  1
*_08*
  1
*
  1
*
 70
     0
  1
*
  1
*
  0
XRECORD
  5
25E
102
{ACAD_REACTORS
330
32
102
}
330
32
100
AcDbXrecord
280
     1
  1
VS_09
  1
*_09*
  1
*
  1
*
 70
     0
  1
*
  1
*
  0
XRECORD
  5
25F
102
{ACAD_REACTORS
330
32
102
}
330
32
100
AcDbXrecord
280
     1
  1
VS_10
  1
*_10*
  1
*
  1
*
 70
     0
  1
*
  1
*
  0
XRECORD
  5
260
102
{ACAD_REACTORS
330
32
102
}
330
32
100
AcDbXrecord
280
     1
  1
VS_11
  1
*_11*
  1
*
  1
*
 70
     0
  1
*
  1
*
  0
XRECORD
  5
261
102
{ACAD_REACTORS
330
32
102
}
330
32
100
AcDbXrecord
280
     1
  1
VS_12
  1
*_12*
  1
*
  1
*
 70
     0
  1
*
  1
*
  0
XRECORD
  5
262
102
{ACAD_REACTORS
330
32
102
}
330
32
100
AcDbXrecord
280
     1
  1
VS_13
  1
*_13*
  1
*
  1
*
 70
     0
  1
*
  1
*
  0
XRECORD
  5
263
102
{ACAD_REACTORS
330
32
102
}
330
32
100
AcDbXrecord
280
     1
  1
VS_14
  1
*_14*
  1
*
  1
*
 70
     0
  1
*
  1
*
  0
XRECORD
  5
264
102
{ACAD_REACTORS
330
32
102
}
330
32
100
AcDbXrecord
280
     1
  1
VS_15
  1
*_15*
  1
*
  1
*
 70
     0
  1
*
  1
*
  0
XRECORD
  5
265
102
{ACAD_REACTORS
330
32
102
}
330
32
100
AcDbXrecord
280
     1
  1
VS_16
  1
*_16*
  1
*
  1
*
 70
     0
  1
*
  1
*
  0
XRECORD
  5
266
102
{ACAD_REACTORS
330
32
102
}
330
32
100
AcDbXrecord
280
     1
  1
VS_17
  1
*_17*
  1
*
  1
*
 70
     0
  1
*
  1
*
  0
XRECORD
  5
267
102
{ACAD_REACTORS
330
32
102
}
330
32
100
AcDbXrecord
280
     1
  1
VS_18
  1
*_18*
  1
*
  1
*
 70
     0
  1
*
  1
*
  0
XRECORD
  5
268
102
{ACAD_REACTORS
330
32
102
}
330
32
100
AcDbXrecord
280
     1
  1
VS_19
  1
*_19*
  1
*
  1
*
 70
     0
  1
*
  1
*
  0
XRECORD
  5
269
102
{ACAD_REACTORS
330
32
102
}
330
32
100
AcDbXrecord
280
     1
  1
VS_20
  1
*_20*
  1
*
  1
*
 70
     0
  1
*
  1
*
  0
XRECORD
  5
26A
102
{ACAD_REACTORS
330
32
102
}
330
32
100
AcDbXrecord
280
     1
  1
W
  1
*SYMB*
  1
*
  1
*
 70
     0
  1
*
  1
*
  0
XRECORD
  5
26B
102
{ACAD_REACTORS
330
32
102
}
330
32
100
AcDbXrecord
280
     1
  1
W.M.T.
  1
W.M.T.*
  1
*
  1
*
 70
     0
  1
*
  1
*
  0
XRECORD
  5
26C
102
{ACAD_REACTORS
330
32
102
}
330
32
100
AcDbXrecord
280
     1
  1
WADE
  1
*DEMO*
  1
*
  1
*
 70
     0
  1
*
  1
*
  0
XRECORD
  5
26D
102
{ACAD_REACTORS
330
32
102
}
330
32
100
AcDbXrecord
280
     1
  1
waiter
  1
waiter*
  1
*
  1
*
 70
     0
  1
*
  1
*
  0
XRECORD
  5
26E
102
{ACAD_REACTORS
330
32
102
}
330
32
100
AcDbXrecord
280
     1
  1
WALL
  1
*WALL
  1
*
  1
*
 70
     0
  1
*
  1
*
  0
XRECORD
  5
26F
102
{ACAD_REACTORS
330
32
102
}
330
32
100
AcDbXrecord
280
     1
  1
Walls
  1
*ExtWalls
  1
*
  1
*
 70
     0
  1
*
  1
*
  0
XRECORD
  5
270
102
{ACAD_REACTORS
330
32
102
}
330
32
100
AcDbXrecord
280
     1
  1
white
  1
*
  1
white
  1
*
 70
     0
  1
*
  1
*
  0
XRECORD
  5
271
102
{ACAD_REACTORS
330
32
102
}
330
32
100
AcDbXrecord
280
     1
  1
white color
  1
*
  1
7
  1
*
 70
     0
  1
*
  1
*
  0
XRECORD
  5
272
102
{ACAD_REACTORS
330
32
102
}
330
32
100
AcDbXrecord
280
     1
  1
whs-zebra-issue
  1
*
  1
*
  1
*
 70
     0
  1
*
  1
*
  0
XRECORD
  5
273
102
{ACAD_REACTORS
330
32
102
}
330
32
100
AcDbXrecord
280
     1
  1
window
  1
window*
  1
*
  1
*
 70
     0
  1
*
  1
*
  0
XRECORD
  5
274
102
{ACAD_REACTORS
330
32
102
}
330
32
100
AcDbXrecord
280
     1
  1
WINEBIN
  1
WINE*,2D*
  1
*
  1
*
 70
     0
  1
*
  1
*
  0
XRECORD
  5
275
102
{ACAD_REACTORS
330
32
102
}
330
32
100
AcDbXrecord
280
     1
  1
winebins
  1
wine*
  1
*
  1
*
 70
     0
  1
*
  1
*
  0
XRECORD
  5
276
102
{ACAD_REACTORS
330
32
102
}
330
32
100
AcDbXrecord
280
     1
  1
WORK
  1
L*,P*,XREF,M*,F*,C*
  1
*
  1
*
 70
     0
  1
*
  1
*
  0
XRECORD
  5
277
102
{ACAD_REACTORS
330
32
102
}
330
32
100
AcDbXrecord
280
     1
  1
X
  1
x-*
  1
*
  1
*
 70
     0
  1
*
  1
*
  0
XRECORD
  5
278
102
{ACAD_REACTORS
330
32
102
}
330
32
100
AcDbXrecord
280
     1
  1
xerf
  1
*
  1
*
  1
*
 70
     0
  1
*
  1
*
  0
XRECORD
  5
279
102
{ACAD_REACTORS
330
32
102
}
330
32
100
AcDbXrecord
280
     1
  1
XREF
  1
Xref*
  1
*
  1
*
 70
     0
  1
*
  1
*
  0
XRECORD
  5
27A
102
{ACAD_REACTORS
330
32
102
}
330
32
100
AcDbXrecord
280
     1
  1
xref-of
  1
*|*
  1
*
  1
*
 70
     0
  1
*
  1
*
  0
XRECORD
  5
27B
102
{ACAD_REACTORS
330
32
102
}
330
32
100
AcDbXrecord
280
     1
  1
XREFID
  1
XREF *
  1
*
  1
*
 70
     0
  1
*
  1
*
  0
XRECORD
  5
27C
102
{ACAD_REACTORS
330
32
102
}
330
32
100
AcDbXrecord
280
     1
  1
YARDIMLAR
  1
*YARDIM
  1
*
  1
*
 70
     0
  1
*
  1
*
  0
XRECORD
  5
27D
102
{ACAD_REACTORS
330
32
102
}
330
32
100
AcDbXrecord
280
     1
  1
YUZEYLER
  1
*YUZEY*
  1
*
  1
*
 70
     0
  1
*
  1
*
  0
ENDSEC
  0
EOF
